akordai.org - get guitar chords, learn to play!
Sign In
lt   en

Saldi, jouda, naktis  v1  
Mamontovas, Andrius

Chords / Tabs
1
2

  • Ave. Rating
  • 3 vote(s)
  • Sent By
  • AkordaiBot
  • 2006-09-15 11:18:04
  • Collection
  • Add
From: Gintaras <gintariuxfoje23(a)yahoo.com>
www.akordai.org


Ziauriai atsiprasau, nes truputeli sumaisiau=)
Dabar viskas tikslu!

Andrius Mamontovas
Saldi, juoda, naktis

Tabai yra labai tikslus, nes aciu LNK, kad parode sita gabala!
ji groti nera sunku, bet reikia isgirsti daina, kad pajustum ritma.

INTRO
       1 variantas            2 variantas
|-----------0-----------|-----------0-----------| 
|---------0---0---------|--------14---14--------|
|------13------13-------|------13-------13------|
|----14----------14-----|----11-----------11----|
|--12--------------12---|--12---------------12--|
|-------------------(0)-|--------------------(0)|
Kartais groja taip        O kartais ir sitaip  
(0)taip pat panaudoje kartais, bet tada nepaliecia 13 stygos

I posmas
Grojama kaip ir INTRO, bet kai maciau, naudojo tik 2 ir kartais panaudoja (0)

Priedainis:
|----------0-------|---------0-------|----------0-------|---------0-------|
|--------5---5-----|-------5---5-----|--------0---0-----|-------0---0-----|
|------4-------4---|-----4-------4---|------4-------4---|-----4-------4---|
|----2-----------2-|---2-----------2-|----2-----------2-|---2-----------2-|
|--4---------------|-0---------------|------------------|-----------------|
|------------------|-----------------|-0----------------|-0---------------|

Žodziai:

Prisimini, kaip minioje pasmerkti mes stovejom?
Prisimeni, kaip negalejom nebuti kartu?
Prisimini, kaip su visais pasroviui nenorejom?
Aš vis dar akimirkoj toj stebuklingoj esu


  Tik saldi, juoda, naktis
  Pasibeldžia į duris
  Iš giliausiu vandenų
  Kyla tūkstančiai laivų

Palaimintas tas kuris eina per lūštantį ledą
Kaip kunigas šviečiantis visas po meilės nakties
Ar tu vis dar nori atrast tai, ko niekas neatrado?
Ar mes susitiksime vėl anapus mirties?

Mes vejamės nuolat nuo mūsų tolstantį Dieva
Ir kartais atrodo, kad niekas nebeturi vilties
Bet jei paziuretum aplinkuj - vien žydinti pieva
Rytojaus nera, kaip nebėra praeities

Grazi daina? Mamontovas tai sugeba! Gintariuxfoje23