akordai.org - get guitar chords, learn to play!
Sign In
lt   en

Ta Pati Diena  
Mamontovas, Andrius

Chords / Tabs

  • Ave. Rating
  • 1 vote(s)
  • Sent By
  • AkordaiBot
  • 2006-09-15 11:15:40
  • Collection
  • Add
     Kūrinys - A. Mamontovas "Ta pati diena"
     Albumas - Šiaurės naktis, pusė penkių
 Transponavo - Monteskje [meshka(a)email.lt]
www.akordai.com

 Įžanga/žodžiai
  Emadd9      F#add4/B    Emadd9       F#add4/B
e--------------------------------------------------|
B-------------------0------------------------0-----|
G-------0---------2---2---------0----------2---2---|
D-----4---4-----4-------4-----4---4------4-------4-|
A---2-------2-2-------------2-------2--2-----------|
E-0-----------------------0------------------------|

 Priedainis [tai ta pati diena..]
  Cadd9                   A/C#
e--------------------------------------------------|
B-------3-----------3-----------5-----------5------|
G-----0---0-------0---0-------2---2-------2---2----|
D---2-------2---2-------2---2-------2---2-------2--|
A-3-----------3-----------4-----------4------------|
E--------------------------------------------------|

 [tiktai 1101-a..]
  Cadd9                   B7
e-------------------------------------2------------|
B-------3-----------3-----------0------------------|
G-----0---0-------0---0-------2---2----------------|
D---2-------2---2-------2---1-------1--------------|
A-3-----------3-----------2------------------------|
E--------------------------------------------------|

 Akordai gale kūrinio [įsiklausykite, kaip grojama]
  Am7 Am6 Em9 Em
e-3---2---2---0-|
B-1---1---0---0-|
G-2---2---0---0-|
D-2---2---2---2-|
A-0---0---2---2-|
E---------0---0-|

 Improvizuokite!


Guitar Chords Used

 

People Who Play This Song Also Play