akordai.org - get guitar chords, learn to play!
Sign In
lt   en

Marso Kanjonai Solo  
Mamontovas, Andrius

Chords / Tabs

  • Ave. Rating
  • 5 vote(s)
  • Sent By
  • aBil
  • 2009-07-06 08:25:40
  • Collection
  • Add
INTRO:

e|-9--9------12-10-9--9--------9-7---7---7-------7h10------10-----10----10--9------9h10-------
|
B|-10-----10----------------10-------------10---------10------10----10------------------------
|
G|-9----9----------------11------------9------9----------9-----------------------9------------
|
D|--------------------0-----------------------------------------------------------------------
|
A|-0------------------------------------------------------------------------0-----------------
|
E|-----------------------------------0--------------------------------------------------------
|


SOLO (po antrojo posmo):
e|----9------12-10-9--9--------9-7---7---7-------7h10------10-----10----10--9------9h10-------
|
B|--------10-------------------------------10---------10------10----10------------------------
|
G|------9----------------11------------9------9----------9-----------------------9------------
|
D|--------------------0-----------------------------------------------------------------------
|
A|-0------------------------------------------------------------------------0-----------------
|
E|-----------------------------------0--------------------------------------------------------
|


"Skanaus" grojimo!:))