akordai.org - get guitar chords, learn to play!
Sign In
lt   en

Naktis (live)  
Mamontovas, Andrius

Chords / Tabs

  • Ave. Rating
  • 1 vote(s)
  • Sent By
  • AkordaiBot
  • 2006-09-15 11:17:34
  • Collection
  • Add
From: Martynas Jocius <mjoc(a)akl.lt>
www.akordai.org


A.Mamontovas -- Naktis
http://www.andriusmamontovas.com/files/Naktis(live).mp3

|----------------------|
|-----5--5-------------|
|-----4--4--------(4)--|  4
|-----2--2------2------|  kartus
|--4---------4---------|
|----------------------|

|----------------------|
|----------------------|
|-----4--4-------------|  2
|-----4--4--------(4)--|  kartus
|-----2--2------2------|
|--4---------4---------|

|----------------------|
|----------------------|
|-----2--2-------------|  2
|-----2--2--------(2)--|  kartus
|-----0--0------0------|
|--2---------2---------|


Dangus nušvito jau, o aš vis dar svaigstu su tavimi
Dangus, kur naktį verkė lietumi

Ei... Ooo.. Tara-rarai...

Ar tu tikrai, ar tik žaidi su manimi?
Kada, kuriuo laiku tu išeini?

Ei... Ooo.. Tara-rarai...

Kada pakils virš mūsų miesto laivai balti
Laivai, kurie nuneš tave toli

Ei... Ooo.. Tara-rarai...

Kita naktis, kuri ateis, bus ta pati
Naktis, kuri kvėpuoja tavimi


Guitar Chords Used

Not Found...
 

People Who Play This Song Also Play