akordai.org - get guitar chords, learn to play!
Sign In
lt   en

Koks Melynas Dangus  v1  
Mamontovas, Andrius

Chords / Tabs
1
2

  • Ave. Rating
  • 1 vote(s)
  • Sent By
  • AkordaiBot
  • 2006-09-15 11:14:52
  • Collection
  • Add
© 2000 SATANod (TM) 
All rights reserved
<SATANod(a)centras.lt>

<intro>

E-----0--------|-----0-----0-----|
B-2-----0------|-2-----0---------|
G------------2-|---2----------2--|
D--------------|----------0-/2-2-|
A-0------------|-0------4--------|
E--------------|-----------------|

E-----0---------|-----0-----0-----|
B-2-----0-------|-2-----0---------|
G---2---------2-|---2---------2---|
D-----------4---|---------------2-|
A--------------4|-----------------|
E---------------|-----------------|

E----0----0-----|-----0------0---|
B-2----0--------|-0-2---0--------|
G---2----2--2---|---------2-1----|
D-------------2-|--------------4-|
A-0-------------|-0--------------|
E---------------|----------------|

E-----0---------|-----0-----0----|
B-2-----0-------|-2-----0--------|
G---2----/1-2---|---0-----2---2--|
D------------/4-|--------------2-|
A---------------|----------------|
E---------------|----------------|

<verse>

E-----0---------|-----0-----0---|
B-2-----0-------|-2-----0-------|
G-2-----------2-|---2-----------|
D-2-------------|---------------|
A-0-----0-------|-0-----0-------|
E-0-------------|---------------|
				    }3k.
E(5)--0---------|-----0-----0----|
B(2)----0-------|-2-----0--------|
G(2)----------2-|---2---------2--|
D(4)------------|---------------2|
A(4)------------|----------------|
E-2-----2-------|-2-----2--------|

E-2--------------|----------------|-------0---------|-------0---------|
B-4-------5--4---|--------5-4-----|-3---3-------3---|-3---3-----3---3-|
G-2--------------|----------------|---2-------------|---2---------2---|
D-4--------------|----------------|-0-----0---------|-0-----0---------|
A-2-------2------|-2------2-------|-----------------|-----------------|
E----------------|----------------|-----------------|-----------------|

priedainis

E----1----------|-----3-------|...|-----4---------|
B---1-------1/3-|-----------3-|...|----4------1-3-|
G---------------|-------------|...|---------------|
D---------------|-------------|...|---------------|
A---0-----0-----|---2-----2---|...|---------------|
E-1-------------|--3----------|...|-1-------------|

<po priedainio>

E-----3-0------|-----3-0------|-----0-------|-----0-------|
B-3------------|-3------------|-1-----0-----|-1-----0-----|
G-----------0--|---0-------0--|-----------2-|---2-------2-|
D--------------|--------------|-------------|-------------|
A-3-----3------|-3-----3------|-0-----0-----|-0-----0-----|
E--------------|--------------|-------------|-------------|


koks mėlynas dangus
koks vėjas laukuose
aš vėl kažkur einu
aš taip noriu matyti tave

tu melą man neši
aš nešiu melą tau
tiesa mums per skaudi
mes negalim be melo gyvent

tu šypsosies kažkam
manęs nebus šalia
tu šypsosies kažkam
visai taip pat kaip ir man

mes tikime kažkuo
mes laukiame kažko
mes dievinam kažką
ir gyvenam mes tik kažkaip

aš tik savim tikiu
ir dievas manyje
jo veido nemačiau
bet jisai panašus į tave



Guitar Chords Used

Not Found...
 

People Who Play This Song Also Play

Not Found...