akordai.org - get guitar chords, learn to play!
Sign In
lt   en

Kvailutė Onulė  
Kernagis, Vytautas

Chords / Tabs

  • Ave. Rating
  • 1 vote(s)
  • Sent By
  • Soapwithbread
  • 2008-03-23 22:44:12
  • Collection
  • Add
From: Soapwithbread
www.akordai.org

  » M.Martinaitis "Kvailutės Onulės rauda"

(žr. apačioje 1.)
Rado Onulė ant tako
raudoną siūlą
iš vaikiškos kojinės,
Dm    G         Dm    G
o gal iš vaivorykštės?
(žr. apačioje 1.)
Atsisėdo ant kupsto,
ir pagailo Onulei to siūlo,
Dm      G   
ir iš gailumo –
Dm
apsiverkė.

Dm
Ir pagailo Onulei
G                  Dm 
vyturio lizdo dirvone,
G        Dm       G        Dm 
šį rytą į kūdrą įkritusios bitės
Dm         G        Dm
ir smėlyje vaiko pėdos.

(kaip 2posm.)
Ir pagailo Onulei,
kad plūgais apars
vyturio lizdą dirvone,
kad bitė ratuota namo nesugrįš
ir liks alkana bičių motina,

(žr. apčioje 2.)
kad vaikai tie – užaugs ir pasens,
o raudonos vaikiškos kojinės
bus per mažos jų kojoms,
per mažos, jų kojoms per mažos.

(žr. apačioje 1.)
Sėdėjo ant kupsto Onulė
ir verkė,
laikydama rankoje siūlą,
(žr. apačioje 3.)
taip verkė, taip verkė,
lyg būtų sudegę namai,
taip verkė, taip verkė,
lyg būtų sudegę namai.

(žr. apačioje 1.)
Kvailutė Onulė...

1.

|---1-----1---|
|---3-----3---|
|---2-----2---|
|-0---0-------|
|-------3---3-|
|-------------|


2.
     Dm                         Dm/C
|-----------1--------------|-----------1--------------|
|--------3-----3-----------|--------3-----3-----------|
|-----2-----------2-----2--|-----2-----------2-----2--|
|--0-----------------0-----|--------------------------|
|--------------------------|--3-----------------3-----|
|--------------------------|--------------------------|

  Dm/B                       G6          A7
-----------1--------------|-----------0-----------0--|
--------3-----3-----------|--------3-----------2-----|
-----0-----------0-----0--|-----0-----------0--------|
--------------------------|--------------------------|
--2-----------------2-----|--1-----------0-----------|
--------------------------|--------------------------|

     Dm                      G6             A7                  
-----------1--------------|----------0----------0----|
--------3-----3-----------|-------3-----------2------|
-----2-----------2-----2--|----0-----------0---------|
--0-----------------0-----|--------------------------|
--------------------------|--1-----------0-----------|
--------------------------|--------------------------|


3.
     Dm                         Dm/C
|-----------1--------------|-----------1--------------|
|--------3-----3-----------|--------3-----3-----------|
|-----2-----------2-----2--|-----2-----------2-----2--|
|--0-----------------0-----|--------------------------|
|--------------------------|--3-----------------3-----|
|--------------------------|--------------------------|

  Dm/B             G6       Dm   
-----------1------------0-|--------1------------|
--------3------------3----|------3---3----------|
-----0------------0-------|----2-------2----2---|
--------------------------|--0-----------0------|
--2------------1----------|---------------------|
--------------------------|---------------------|

     Dm                         Dm/C
|-----------1--------------|-----------1--------------|
|--------3-----3-----------|--------3-----3-----------|
|-----2-----------2-----2--|-----2-----------2-----2--|
|--0-----------------0-----|--------------------------|
|--------------------------|--3-----------------3-----|
|--------------------------|--------------------------|

  G6             A7                  
----------0----------0----|
-------3-----------2------|
----0-----------0---------|
--------------------------|
--1-----------0-----------|
--------------------------|

tikuosi, suprasit kaip grot ;) kad but aiskiau, siulau pirmiausia paklausyti :)
vertinkit :))