akordai.org - get guitar chords, learn to play!
Sign In
lt   en

Arbata  
Mykolaitis, Saulius

Chords / Tabs

  • Ave. Rating
  • 23 vote(s)
  • Sent By
  • AkordaiBot
  • 2006-09-15 11:15:20
  • Collection
  • Add
From: \"Blackbird\" <sledge(a)centras.lt>

                (Bardų vakaras, 2002 m.)

^ - pliaukštelti delnu (riešu,nžn :) per stygas ar per gitarą ar geriausia 
koja sutrepsėt- kad skambėtų stygos

(intro:) (daug maž taip pat grojama ir jam dainuojant)
  G         Am         C  Cadd9     D6
e-------------------------------------------
B-3-----3------1-----0-1-h333-3-3-3--0---0--
G---------------2----------------------2----
D--------------------------------------0----
A-----------0----------3----------3---------
E-3-----------------------------------------
     ^          ^           ^ 

  G         Am         C  Cadd9     D
e--------------------------------------2----
B-3-----3------1-----0-1-h3-3-3-3-3------3--
G---------------2------------------------2--
D--------------------------------------0----
A-----------0----------3----------3---------
E-3-----------------------------------------
     ^          ^           ^  
  Em         A         C Cadd9
e-------------------------------------------
B-0-------0--2p0----0--1h3-3---------------
G----0-----------2--0--------------------------
D------------------------------------------
A------------0---------3----------------------
E-0-----------------------------------------
        ^       ^            ^        ^

Cadd9....
---------------------------------
 ^        ^        ^        ^

G        Am
   Mano būstas tamsus,

C Cadd9        D6 G
   Pasiklydęs miškuos

Am    C    Cadd9   D

G        Am        C Cadd9
   Iš visų prakeiktų
             D6 G 
Tave vieną renkuos

Am    C    Cadd9   D

Em          A       C
   Šaltą šviesą lange
         D       Em
Liūdnas vėjas užpūs

A     C Cadd9

Cadd9...            G
Staugia vilkas tankmėj
      D  D*     Cadd9...
Vienišesnis už mus

(Pr.:)
       Am         C
Bet namuos - židinys,
      D        G
Virduly - arbata
     Am       C
Mylimoji, kuždėk man
     D         G
Šią naktį bet ką

(Pr.:)
       Am         C
Bet namuos - židinys,
      D        G
Virduly - arbata
     Am       C
Mylimoji, kuždėk man
     D      Dsus4...
Šią naktį...

...Dsus4 D Dsus2

O paskui bus aušra,
Tiktai mūsų nebus
Mes išeisim tamsoj
Ir uždegsim namus

O paskui bus aušra,
Tiktai mūsų nebus
Ei, visi prakeikti,
Pasimelskit už mus

(Pr.)

(pragrojimas)

(Pr.)

e ---------
B -----0---
G ---------
D ---------   FIN! :)
A ---------
E -----3---
..bet ką

P.S.: Visur (pradžioj) nekliudoma 1 styga:
Cadd9   [x 3 2 0 3 x]
D6      [x x 0 2 0 x]
D*      [x x 0 2 3 5]
Dsus4   [x x 0 2 3 3]