akordai.org - get guitar chords, learn to play!
Sign In
lt   en

Nuo mano lango  v1  
Kernagis, Vytautas

Chords / Tabs
1
2
3

  • Ave. Rating
  • 10 vote(s)
  • Sent By
  • AkordaiBot
  • 2006-09-15 11:17:41
  • Collection
  • Add
From: Whatever 
www.akordai.org


V. Kernagis - Nuo mano lango

     Am                                                                    
E||-------0----0----|-------0----0----|-------0----0----|-------0----0----|
B||-------1----1----|-------1----1----|-------1----1----|-------1----1----|
G||-------2----2----|-------2----2----|-------2----2----|-------2----2----|
D||-----------------|--2--------------|-----------------|--2--------------|
A||--0--------------|-----------------|--0--------------|-----------------|
E||-----------------|-----------------|-----------------|-----------------|
   Nuo mano          lango             lig tavo          durų
   Per visą          naktį             po visą           miestą

  Dm  
-------1----1----|-------1----1----|-------1----1----|-------1----1----||
-------3----3----|-------3----3----|-------3----3----|-------3----3----||
-------2----2----|--2----2----2----|-------2----2----|--2----2----2----||
--0--------------|-----------------|--0--------------|-----------------||
-----------------|-----------------|-----------------|-----------------||
-----------------|-----------------|-----------------|-----------------||
Tūkstantis         varstų,
Šešėlių            žingsniai,

   F
E||-------1----1----|-------1----1----|-------1----1----|-------1----1----|
B||-------1----1----|-------1----1----|-------1----1----|-------1----1----|
G||-------2----2----|-------2----2----|-------2----2----|-------2----2----|
D||-----------------|--3--------------|-----------------|--3--------------|
A||-----------------|-----------------|-----------------|-----------------|
E||--1--------------|-----------------|--1--------------|-----------------|
  Švaistūnas         klevas            žvangantį         auksą     
  Iš lapų            saujos            rudenio           saulės

 Am
-------0----0----|-------0----0----|-------0----0----|-------0----0----||
-------1----1----|-------1----1----|-------1----1----|-------1----1----||
-------2----2----|-------2----2----|-------2----2----|-------2----2----||
-----------------|--2--------------|-----------------|--2--------------||
--0--------------|-----------------|--0--------------|-----------------||
-----------------|-----------------|-----------------|-----------------||
 Pavėjui           žarsto.
 Nebesu -          rinks

Nuo mano delno lig tavo skruosto
prieblandos vėsios,
Šešėlių žingsniai, užburtas rūmas,
vaiduoklių aidas.

Per visą naktį lyg šiltą paukštį
Nešu ištiesęs
Tokį vienintelį, vienišą tokį
savo švelnumą.