akordai.org - get guitar chords, learn to play!
Sign In
lt   en

Pasakyki, Panytėle  
Kernagis, Vytautas

Chords / Tabs

  • Ave. Rating
  • 4 vote(s)
  • Sent By
  • AkordaiBot
  • 2006-09-15 11:15:49
  • Collection
  • Add
From: never mind - dzigidzigi(a)centras.lt
To: gerb(a)bamba.lt
WWW.AKORDAI.COM

Pasakyki, panytėle
V. Kernagis
Albumas "Akustinis"

Parinko ir atsiuntė: never mind (dzigidzigi(a)centras.lt)


  A               E               E7              A
|-------------0---------------0---------------0-----------0-----|
|---------2---------------0---------------3-------------------2-|
|-----2---------------1---------------1---------------2---------|
|---------------------------------------------------------------|
|-0-----------------------------------------------0-------------|
|-----------------0---------------0-----------------------------|
 Pasakyki,       panytėle,        ar tu mane     myli
 
  A               E               E7              A
|-------------0---------------0---------------0---------------0-|
|---------2---------------0---------------3---------------2-----|
|-----2---------------1---------------1---------------2---------|
|---------------------------------------------------------------|
|-0-----------------------------------------------0-------------|
|-----------------0---------------0-----------------------------|
Kiek jau kartų   tave klausiu,       o tu jen vis tyli

  A7              D               E               A
|---------3---------------2-------------------0-----------0-----|
|-------------2---------------3-----------0-------------------2-|
|-----2---------------2---------------1---------------2---------|
|-----------------0---------------------------------------------|
|-0-----------------------------------------------0-------------|
|---------------------------------0-----------------------------|
 Pasakyk,      nevargink manęs,  regi    baigiu džiūti

  A7              D               E               A
|---------3-------------------2---------------0-----------0-----|
|-------------2-----------3---------------0---------------2-----|
|-----2---------------2---------------1---------------2-------2-|
|-----------------0---------------------------------------------|
|-0-----------------------------------------------0-------------|
|---------------------------------0-----------------------------|
 Kurią dien    nematau tavęs -   tikrai reik  pražūti

Toliau grojama sekančiu principu
|-----x---| x - grojamas ritmas 
|-----x---|
|---x---x-|
|-D-------| D - D akordo "bosas"
|-A-------| A - A (A7) akordo "bosas"
|-E-------| E - E (E7) akordo "bosas"

A              E               E7          A
Oi laimingas, kaip laimingas, kas gal apsakyti
 A           E          E7        A
Kurią dieną savo meilę gaunu pamatyti
A7          D            E             A
Nemainyč tos valandėlės ant turtų didžiausių
 A7         D           E              A
Kada imdams už rankelės   savo meilę klausiu

  A               E               E7              A
|-------------0---------------0---------------0-----------0-----|
|---------2---------------0---------------3-------------------2-|
|-----2---------------1---------------1---------------2---------|
|---------------------------------------------------------------|
|-0-----------------------------------------------0-------------|
|-----------------0---------------0-----------------------------|
 Ar tu sveika,    ar tu linksma, mano       aniuolėlis

  A               E               E7              A
|-------------0---------------0---------------0---------------0-|
|---------2---------------0---------------3---------------2-----|
|-----2---------------1---------------1---------------2---------|
|---------------------------------------------------------------|
|-0-----------------------------------------------0-------------|
|-----------------0---------------0-----------------------------|
 Ar neilgu       tau be manęs,       tu mano kvietkelis

  A7              D               E               A
|---------3-------------------2---------------0-----------0-----|
|-------------2-----------3---------------0-------------------2-|
|-----2---------------2---------------1---------------2---------|
|-----------------0---------------------------------------------|
|-0-----------------------------------------------0-------------|
|---------------------------------0-----------------------------|
 Oi kaip aš  tavęs  pasiilgau,   baltoji      gulbele

  A7              D               E               A
|---------3-------------------2---------------0-----------0-----|
|-------------2-----------3---------------0---------------2-----|
|-----2---------------2---------------1---------------2---------|
|-----------------0---------------------------------------------|
|-0-----------------------------------------------0-------------|
|---------------------------------0-----------------------------|
 Seniai, seniai jau skambėjo     tarp mūsų    dainelė

Toliau grojama sekančiu principu
|-----x---| x - grojamas ritmas 
|-----x---|
|---x---x-|
|-D-------| D - D akordo "bosas"
|-A-------| A - A (A7) akordo "bosas"
|-E-------| E - E (E7) akordo "bosas"

 A           E              E7             A
Tegul skamba, garsiai skamba tarp mūsų dainelės
A             E           E7          A
Oi kaip gera yr dainuoti prie savo panelės
A7            D          E               A
Oi tu meile, širdis mano ir turtai ant svieto
A7           D          E             A
Pasakyk, ar širdy tavo bus dėl manęs vieta

Tempas lėtėja
  A7              D               E               A
|---------3-------------------2---------------------------0-----|
|---------2---------------3-------------------------------2-----|
|-----2---------------2-----------------------1-----------2-----|
|-----------------0-----------------------2-----------2---------|
|-0-----------------------------------2-----------0-------------|
|---------------------------------0-----------------------------|
 Pasakyk,     ar širdy tavo      bus dėl ma - nęs vie  -  ta