akordai.org - get guitar chords, learn to play!
Sign In
lt   en

Tai Aš  v3  
Kernagis, Vytautas

Chords / Tabs
1
2
3

  • Ave. Rating
  • 1 vote(s)
  • Sent By
  • Stasmenas
  • 2009-10-12 11:51:27
  • Collection
  • Add
Daina : Tai aš
Atlikėjas : Vytautas Kernagis                               

Tab'us parašė : Stasys Grigonis
Akustinė gitara

morflexas(a)gmail.com

Kupletas
                                                                          
E||-------------|----0--------|-------------|-------------|--------------|
B||--0--1-3-3---|--3---3-1-0--|--0-0-0-0-0--|---1-0---0---|---1-1-1-1-1--|
G||-------------|-------------|-------------|-------2-----|--------------|
D||-------------|-------------|-------------|-------------|--------------|
A||-------------|-------------|-------------|-------------|--------------|
E||-------------|-------------|-------------|-------------|--------------|


                                                                          
------------|-------------|-------------|-------------|-----3------|
---3-1-0----|-------------|---0---------|-------------|------------|
---------2--|--0-0-0-0----|--0----------|--0-0-0-0----|---0--------|
------------|-------------|-------------|-------------|------------|
------------|-------------|-------------|-------------|------------|
------------|-------------|-------------|-------------|------------|


Priedainis

                                                                            
---------0--|----0--------|-------------|---------0---|----0-------|----------|
---0-1-3----|--3---3---1--|--0.....-----|---0-1-3-----|--3---3-3-3-|--1--0----|
------------|-------------|-------------|-------------|------------|----------|
------------|-------------|-------------|-------------|------------|----------|
------------|-------------|-------------|-------------|------------|----------|
------------|-------------|-------------|-------------|------------|----------|


                                                                           
------------|-3-3-3-0---|--0-0-3-2---|--2-3-5-5s7--|--7-7-5-3--|---------0--|
--0-0-1-3---|-----------|------------|-------------|-----------|--0-1-3-----|
------------|-----------|------------|-------------|-----------|------------|
------------|-----------|------------|-------------|-----------|------------|
------------|-----------|------------|-------------|-----------|------------|
------------|-----------|------------|-------------|-----------|------------|


                                                                           
----0-----|-----------------|
--3---0---|-----------------|
----------|---2--0.....-----|
----------|-----------------|
----------|-----------------|
----------|-----------------|
 

   Dainos Eiliškumas :

   2x Kupletas
   1x Priedainis
   1x Kupletas
   1x Priedainis
   1x Elektrinės gitaros solo
   1x Priedainis
   


 G                   
Kai ryto paukščiai dangų palies,
 Em
Palies medžius, rasotą žolę,
 Am
Ir jų giesmė tave apglėbs,
 C          G    
Nenusigąsk - tai aš. 2K


 G
Kai iš dangaus staiga nelauktas,
 Em
Nors visą dieną saulė švietė,
 Am
Pradės lietus tau veidą glostyt,
 C          G 
Nenusigąsk - tai aš. 2K.


       C      D      G    G  
Nenusigąsk,nenusigąsk
     C    D     G    G7    
Nenusigąsk, tai aš


 G
Kai vakare už ievų girios
 Em
Išgirsi vaikštant paukštį mažą
 Am
Ir jo akis tu pamatysi,
 C          G
Nenusigąsk - tai aš. 2K.


       C      D      G    G  
Nenusigąsk,nenusigąsk
     C    D     G    G7    
Nenusigąsk, tai aš