akordai.org - get guitar chords, learn to play!
Sign In
lt   en

Tai Aš  v1  
Kernagis, Vytautas

Chords / Tabs
1
2
3

  • Ave. Rating
  • 3 vote(s)
  • Sent By
  • AkordaiBot
  • 2006-09-15 11:14:51
  • Collection
  • Add
Atsiunte: QQtis [smvd(a)msn.com]
Parinko: Martynas Gircys-Shetty
------------------------------------------------------

Tai As
Zodziai ir muzika - V. Kernagio
Is albumu: Keistumas, Akustinis

[riff A]
|-------0---------|-------0---------|
|-----1---1-------|-----1---1-------|
|---0-------0---0-|---0-------0---0-|
|-----------------|-----------------|
|-3-----------3---|-3-----------3---|
|-----------------|-----------------|
 Kai ryto pauksciai dangu palies

|-------0---------|-------0---------|
|-----2---2-------|-----2---2-------|
|---0-------0---0-|---0-------0---0-|
|-----------------|-----------------|
|-1-----------1---|-0-----------0---|
|-----------------|-----------------|
 Palies medzius, rasota zole

|-------1---------|-------1---------|
|-----3---3-------|-----3---3-------|
|---2-------2---2-|---2-------2---2-|
|-0-----------0---|-0-----------0---|
|-----------------|-----------------|
|-----------------|-----------------|
 Ir ju giesme     tave apglebs

|-------1---------|-------3---------|
|-----1---1-------|-----1---1-------|
|---2-------2---2-|---0-------0---0-|
|-0-----------0---|-----------------|
|-----------------|-3-----------3---|
|-----------------|-----------------|
      nenusigask- tai as

|-------1---------|-------3---------|
|-----1---1-------|-----1---1-------|
|---2-------2---2-|---0-------0---0-|
|-0-----------0---|-----------------|
|-----------------|-3-----------3---|
|-----------------|-----------------|
  nenusigask -  tai as


[riff A]
Kai is dangaus, staiga, nelauktas
Nors visa diena saule sviete
Prades lietus tau veida glostyt
Nenusigask - tai as

[interliudas]
|-------1---------|-------0---------|
|-----3---3-------|-----0---0-------|
|---2-------2---2-|---1-------1---1-|
|-0-----------0---|-----------------|
|-----------------|-------------2---|
|-----------------|-0---------------|

|-------0---------|-------0-------0-|
|-----1---1-------|-----2-------2---|
|---2-------2---2-|---0-------0-----|
|-----------------|-----------------|
|-0-----------0---|-1-------0-------|
|-----------------|-----------------|

|-------1---------|-------0---------|
|-----3---3-------|-----0---0-------|
|---2-------2---2-|---1-------1---1-|
|-0-----------0---|-----------------|
|-----------------|-------------2---|
|-----------------|-0---------------|

|-0------3------|
|-1------3------|
|-2------0------|
|-2------0------|
|-0------2------|
|--------3------|

[riff A] (pirmus 8 taktus)
Kai vakare, uz ievu girios
Isgirsi vaikstant pauksti maza
Ir jo akis tu pamatysi

[coda]
|-------1---------|--0----3-3-3-3-|
|-----1---1-------|--1----1-1-1-1-|
|---2-------2---2-|--0----0-0-----|
|-0-----------0---|--2----2-------|
|-----------------|--3------------|
|-----------------|---------------|
  Nenusigask -   tai as

|-1-1-1-1-1-1-1-1-|-0--0-3--0-0-0-|
|-1-1-1-3-3-3-3-3-|-1--1-1--1-1-1-|
|-2-2-2-2-2-2-2-2-|-0--0-0--0-----|
|-0-----------0---|-2-------------|
|-----------------|-3-------------|
|-----------------|---------------|
     Nenusigask-tai as

|-1-1-1-1-1-1-1-1-|-0--0-3--3-3-3-|
|-1-1-1-3-3-3-3-3-|-1--1-1--1-1-1-|
|-2-2-2-2-2-2-2-2-|-0--0-0--0-----|
|-0-----------0---|-2-------------|
|-----------------|-3-------------|
|-----------------|---------------|
     Nenusigask-tai as

ir t.t.

Shtai ir visa daina, pilname TABe

transkripcija atliko Martynas Gircys-Shetty