akordai.org - get guitar chords, learn to play!
Sign In
lt   en

Keistumas  
Kernagis, Vytautas

Chords / Tabs

  • Ave. Rating
  • 3 vote(s)
  • Sent By
  • AkordaiBot
  • 2006-09-15 11:17:43
  • Collection
  • Add
From: Domas <juros_ezys(a)one.lt>
www.akordai.org


Vytautas Kernagis - Keistumas
m. Vytautas Kernagis
<tab by juros_ezys www.tai-ne.visiems.lt>

     Dm                         Dm/C
E||-----------1--------------|-----------1--------------|
B||--------3-----3-----------|--------3-----3-----------|
G||-----2-----------2-----2--|-----2-----------2-----2--|
D||--0-----------------0-----|--------------------------|
A||--------------------------|--3-----------------3-----|
E||--------------------------|--------------------------|

  Dm/B                       G6          A7
-----------1--------------|-----------0-----------0--|
--------3-----3-----------|--------3-----------2-----|
-----0-----------0-----0--|-----0-----------0--------|
--------------------------|--------------------------|
--2-----------------2-----|--1-----------0-----------|
--------------------------|--------------------------|


  Dm                           Dm/C
-----------0h-1-------------|-----------0h-1-------------|
--------3-------3-----------|--------3-------3-----------|
-----2-------------2-----2--|-----2-------------2-----2--|
--0-------------------0-----|----------------------------|
----------------------------|--3-------------------3-----|
----------------------------|----------------------------|

  Dm/B                         G6          A7
-----------0h-1-------------|-----------0-----------0--||
--------3-------3-----------|--------3-----------2-----||
-----0-------------0-----0--|-----0-----------0--------||
----------------------------|--------------------------||
--2-------------------2-----|--1-----------0-----------||
----------------------------|--------------------------||

Na ir keistumas, na ir keistumas medžiu rudeni-
Ima ir nusirengia.
Na ir keisti, na ir keisti tie medžiai rudeni-
Ima ir nusirengia.

(Toliau groti braukant tuos pacius akordus.)

O prie manes sustoja storiausiais kailiais žmones:
Ko norit? Ko gi norit? Juk aš kaip medis nuogas.
Einu per pati šalti, visi man siulo kailinius,
Bet aš kaip medis keistas, ir suprastas tik medžiu.

Na ir keisti, na ir keisti tie medžiai rudeni-
Ima ir nusirengia. 2x.

Pragrojimas tais paciais akordais kelis kartus, pradžioje renkant stygas, po to braukant.
Daina užbaigiama renkant stygas.

Akordai:
Dm	xx0231
Dm/C	x3x231
Dm/B	x2x031
G6	x1x010
A7	x02020