akordai.org - get guitar chords, learn to play!
Sign In
lt   en

Nidos Daina  v1  
Mamontovas, Andrius

Chords / Tabs
1
2

  • Ave. Rating
  • 2 vote(s)
  • Sent By
  • AkordaiBot
  • 2006-09-15 11:14:51
  • Collection
  • Add

© 2000 SATANod (TM) 
All rights reserved
--------------------------------


E---------------|----------(0)---|
B---2--2---3--2-|---2--2----3--2-|
G---2--2---2----|---2--2----2----|
D---------------|---------0------|
A-0------2--2---|------------2---|
E---------------|-2--------------|

mazdaug toks pagrindinis motyvas, bet jis ten 
yvairiai kartais be skliausteliu, kartais su,
kartais taip groja:


E--------------|--------------0--|
B---2--2---3--2|---2--2----3-3---|
G---2--2---2---|---2--2----2-----|
D--------------|---------0-------|
A-0------2--2--|-----------------|
E--------------|-2---------------|

priedainis:
E----------|-------0---|
B--2-2-3-2-|--2-2--3-2-|
G--2-2-2---|--2-2--2---|
D---2------|-----0-----|
A-0--02-2--|---0*---2--|
E----------|-2--2------|
*-cia turetu but 2, bet taip nepatogu grot,
tai gerai skamba ir 0

pragrojimas
E--9---9-12---10---9--|-9--9-10--9---7-7---|
B-10--10-10---10--10--|10-10-10-10-10---10-|
G----------11-----11--|-11---11-----7----7-|
D-----------------12--|-11---11-----7----7-|
A---------------------|--------------------|
E---------------------|--------------------|
plius bosas groja taip:
A---------7---|---------------|
E-/5--4-5-----|-/5--4-5-1/2---|

tu sugrįžai į mano svajones
tu vėl šalia tyliai esi
ir aš tavyje nėra abejonės
nebėra kur eiti žino visi

priedainis:
nes čia švyturys
už nugaros
nes čia dešinėj 
ir kairėj vanduo
jei leisi akis
vėjui paliest
tavo širdis
nebebus akmuo

pragrojimas

šiandien ryte mes keliavom per smėlį
nuo vieno vandens iki kito vandens
kai saulė vėliau vėl ir vėl patekėjo
mes pasilikom čia ligi rudens

priedainis