akordai.org - get guitar chords, learn to play!
Sign In
lt   en

Nidos daina  v2  
Mamontovas, Andrius

Chords / Tabs
1
2

  • Ave. Rating
  • 1 vote(s)
  • Sent By
  • AkordaiBot
  • 2006-09-15 11:17:48
  • Collection
  • Add
From: Gintaras <gintariuxfoje23(a)yahoo.com>
www.akordai.org


A.Mamontovas - Nidos daina

[AKORDAI]
       EADGBe
------------------------------
A    | x02220
Hm   | 224432
D    | xx0232
F#m  | 244222
------------------------------


[VERSE]
e|---------------|----------(0)---|---------------|--------------0--|
B|---2--2---3--2-|---2--2----3--2-|---2--2---3--2-|---2--2----3-3---|
G|---2--2---2----|---2--2----2----|---2--2---2----|---2--2----2-----|
D|---------------|---------0------|---------------|---------0-------|
A|-0------2--2---|------------2---|-0------2--2---|-----------------|
E|---------------|-2--------------|---------------|-2---------------|

[CHORUS]
e|---------------|-----------0----|
B|---2-2----3--2-|---2-2-----3--2-|
G|---2-2----2----|---2-2-----2----|
D|----2----------|---------0------|
A|-0---0--2---2--|----2-------2---|
E|---------------|-2---2----------|
______________________________________________________________________


[VERSE]
  A  Hm      A     D       A      Hm F#m E
    Tu sugrįžai į mano svajones,
  A  Hm       A  D         A      Hm F#m E
    Tu vėl šalia tyliai esi
  A    Hm     A       D    A      Hm F#m E
    Ir aš tavyje - nėra abejonės
  A    Hm        A   D     A      Hm F#m E
    Nebėra, kur eit žino visi.
	 
[CHORUS]
             E           A  Hm A
        Nes čia - švyturys
         D       A  Hm F#m
        Už nugaros
             E        A  Hm     A    D      A Hm F#m
        Nes čia, dešinėj ir kairėj - vanduo
             E        A  Hm  A    D         A Hm F#m
        Jei leisi, akis         vėjai  palies
          E      A  Hm   A  D   A Hm F#m
        Tavo širdis nebebus akmuo
		  
[VERSE]
    Šiandien ryte mes keliavom per smėlį,
    Nuo vieno vandens iki kito vandens.
    Kai saulė vėliau vėl ir vėl patekėjo
    Mes pasilikom čia iki rudens.

[CHORUS] .....

Gintariuxfoje23