akordai.org - get guitar chords, learn to play!
Sign In
lt   en

Mes čia  
Mamontovas, Andrius

Chords / Tabs

  • Ave. Rating
  • 2 vote(s)
  • Sent By
  • AkordaiBot
  • 2006-09-15 11:16:34
  • Collection
  • Add
To: gerb(a)bamba.lt
From: Marius Nesvarbu <sinkubas(a)yahoo.com>
www.akordai.org

Atsiunte Sinkubas (sinkubas(a)yahoo.com). Jei turite kokiu pageidavimu, prašymu, pasiulymu
ar pastebejote klaidu tabuose, iš karto rašykite man:)



www.akordai.org



MES CIA
ANDRIUS MAMONTOVAS


Kai kur sintezatoriaus partija parasiau kaip gitaros.
Tikiuosi, kad suprasite kur kas. Palyginus lengva daina, bet kai reikia viska sugaudyti,
tai..... :)


Naudojami akordai:
Em  022000



Intarpas 1
Gtr.1 Em
Gtr.2  
E-|--------------9\-------------------------------------------9\-----| 
B-|--x--x--x--x--9\--------5-----------5--5--------5----------9\--5--| 
G-|--x--x--x--x--9\--4--6--------4--6--------4--6-------4--6--9\-----| 
D-|--x--x--x--x---------------x----------------------x---------------| 
A-|--x--x--x--x---------------x----------------------x---------------| 
E-|------------------------------------------------------------------| 


 Em
 Ei ten, pavogtose masinose.

 Skustagalviai karstuose tiuninginiuose.

 Dabar, jeigu girdit sia daina,
 N.a.
 Mes cia, jusu laikas praeina.

 
Intarpas 2
Gtr.1 Em                            
Gtr.2  
E-|-------------------------------| 
B-|-------------------------------| 
G-|-----5--7--5h7--7-----5--7--7--| 4 kartus
D-|--5----------------5-----------| 
A-|-------------------------------| 
E-|-------------------------------| 
   Hey!


 Em
 Ei jus, patogus jaunuoliai,

 Tevu pinigus prauostantys uoliai.

 Trumpai erekcija laikesi.
 N.a.
 Mes cia, jusu laikas jau baigesi.


Intarpas 3
Gtr.1 Em (Si dalis toliau eina per visa daina)
Gtr.2 
E-|--------------------------------------------------| 
B-|--------------------------------------------------| 
G-|--------------------------------------------------| 
D-|--2--2--2--2-----2-----2--2--2--2--2-----2-----2--| 
A-|--2--2--2--2-----2-----2--2--2--2--2-----2-----2--| 
E-|--0--0--0--0--0-----0-----0--0--0--0--0-----0-----|
 

Intarpas 4
Gtr.1 Em
Gtr.2     
E-|--------------------------------------------------| 
B-|--x\--------5-----------5--5--------5-------------| 
G-|--x\--4--6--------4--6--------4--6-------4--6-----| 2 kartus 
D-|--x\-----------x----------------------x--------4--| 
A-|--x\-----------x----------------------x-----------| 
E-|--------------------------------------------------| 


 Em
 Ei ten, doroves sargyboje.

 Musu laisves kalejimo statyboje.
 
 Kreiva jusu laimes teorija.
 N.a.
 Mes cia, nuo siandien jus - istorija.

 
Groti Itarpas 3 (4 kartus)


 Em
 Ei, susirinke i partija.

 Kostiumuotu nevykeliu armija.
 Intarpas 2
 Visas prostitutes i pencija.
 N.a.
 Mes cia, jums jau baiges kadencija.


Intarpas 5   
Gtr.1 Em
Gtr.2     
E-|-----------------------------------------------| 
B-|--x\--------5--------------------5-------------| 
G-|--x\--4--6--------4--6-----4--6-------4--6-----| 2 kartus
D-|--x\-----------x--------6----------x--------6--| 
A-|--x\-----------x-------------------x-----------| 
E-|-----------------------------------------------|


Groti Intarpas 2 per visa posma


 Em
 Ei jus, sou fakin' biznio kurejai.

 Pigiu skuduru pardavejai.

 Nusibraukit soliariumu idegi.
 N.a.
 Mes cia, jusu sou jau pasibaige.

 

O dabar jau prasideda:) Zodziu taip, grojami visi intarpai vienu metu (paskaiciuokit kiek
gitaru jum prireiks:)).
Ir dar yra viena elektrines gitaros partija, kuri tesiasi iki pat pabaigos. Vienu zodziu,
beprotybe kazkokia:)


E-|----------------|           E-|----------------| 
B-|--5b--------5b--|           B-|--8b--------8b--| 
G-|--4---------4---| 2 kartus  G-|--7---------7---| 2 kartus
D-|------x--x------|           D-|------x--x------|
A-|------x--x------|           A-|------x--x------|
E-|----------------|           E-|----------------|

    
Stai jum ir visa daina:)