akordai.org - get guitar chords, learn to play!
Sign In
lt   en

Nuo mano lango  v3  
Kernagis, Vytautas

Chords / Tabs
1
2
3

  • Ave. Rating
  • 0 vote(s)
  • Sent By
  • Kipras.Sereikis
  • 2022-02-23 07:18:48
  • Collection
  • Add
Am                              Dm
Nuo mano lango lig tavo durų – tūkstantis varstų.
Am                               Dm
Per visą naktį po visą miestą – šešėlių žingsniai.
F                 G               Am
Švaistūnas klevas žvangantį auksą pavėjui žarsto.
F              G               Am
Iš lapų saujos rudenio saulės nebesurinks.


Am                                  Dm
Nuo mano delno lig tavo skruosto prieblandos vėsios,
Am                                  Dm
Šešėlių žingsniai, užburtas rūmas, vaiduoklių aidas.
F                  G              Am
Per visą naktį lyg šiltą paukštį nešu ištiesęs.
F                G             Am
Tokį vienintelį, vienišą tokį savo švelnumą.



      Am
E||-------0---0---|-------0---0---|-------0---0---|-------0---0---|
B||-------1---1---|-------1---1---|-------1---1---|-------1---1---|
G||-------2---2---|-------2---2---|-------2---2---|-------2---2---|
D||---------------|---2-----------|---------------|---2-----------|
A||---0-----------|---------------|---0-----------|---------------|
E||---------------|---------------|---------------|---------------|

      Dm
E||-------1---1---|-------1---1---|-------1---1---|-------1---1---|
B||-------3---3---|-------3---3---|-------3---3---|-------3---3---|
G||-------2---2---|---2---2---2---|-------2---2---|---2---2---2---|
D||---0-----------|---------------|---0-----------|---------------|
A||---------------|---------------|---------------|---------------|
E||---------------|---------------|---------------|---------------|

Kiek pakoreguota prieš tai buvusi versija