akordai.org - get guitar chords, learn to play!
Sign In
lt   en

Surukau Cigarete  v5  
Incognito

Chords / Tabs
1
2
3
4
5

  • Ave. Rating
  • 6 vote(s)
  • Sent By
  • Chad
  • 2009-03-30 09:37:53
  • Collection
  • Add
Atlikejas: Incognito
Daina: Surukau cigarete

A#5 [x133xx]
F5  [133xxx]
C5  [x355xx]
D#5 [x688xx]
D5  [x577xx]
G5  [355xxx]

Posmas:
A#5 F5 C5 A#5 F5
A#5 D#5 A#5 F5 A#5

Pried:
D#5 A#5 D#5 A#5
A#5 F5 G5 D5 D#5 F5
A#5 F5 G5 D5 D#5 F5 A#5

     A#5                 F5
Surukau cigarete ir kvepuoju vos vos.
      C5                      A#5   F5
Pabuciuoju sau ranka, gaila, kad ne jo.
      A#5                 D#5
Pabuciuoju ir kita gal penkis kartus,
       A#5     F5         A#5
O mintyse Tavo lupu kampucius.

Pasakyti Tau labas niekaip nedristu.
Pasakysiu rytoju, o gal poryt - nesvarbu.
Iseini Tu septinta, o grizti kaip kada,
Stebiu pro langa paslapcia.

Pried:
    D#5               A#5
Nes Tu mano meile, Tu mano tvirtove,
D#5                 A#5
Tau pasakyt nedristu, bet svajoju,
A#5 F5       G5         D5        D#5
Kad noriu Taves nors minutei vienai,
                   F5
To uzdrausti juk niekas negali.
A#5   F5         G5       D5        D#5
Taip, noriu buciuot Tavo lupas karstai
             A#5
Nors ir amzinai


Buvau lauke prie darzelio ir uosciau geles,
Netiketai Tu priejai prie manes.
Tu buvai taip arti, arti kaip niekada
Ir jau galvojau nualpsiu, bet ne.

Paklausei kas man yra, gal as proto einu,
Kad kasdien i Tave pro langa vis ziuriu.
Va tada neatlaike mano nervai silpni
Ir nualpau Tavo gleby.

Pried.

Solo:

e------------------------------------------------
B-------6-6-6------------------------------------
G-7-7-7-------------7-7---------7-7-----5-5-5-7--
D-------------8-8-8-------5-5-5-------8----------
A------------------------------------------------
E------------------------------------------------

e-------------6-6--------------------------------
B-------6-6-6-------8-8--------------------------
G-7-7-7-------------------7-7-7-5-5-5------------
D-------------------------------------8-8-8------
A------------------------------------------------
E------------------------------------------------

Pabudau Tavo lovoj, na bet kas is to,
Pasakei, kad jau eiciau namo.
Nepaklausiau nei vardo Tavo nei pavardes,
Tiktai atleisk, o paskui sudie.

Grizau namo ir verkiau, man buvo liudna labai.
Meile tai kancia, zinau dabar tikrai.
Tik vis viena tikiu, kad dar ateis diena
Ir apkabinsi stipriai mane.

Pried.

Solo. 2x