akordai.org - get guitar chords, learn to play!
Sign In
lt   en

Ilgas kelias  
RebelHeart

Chords / Tabs

  • Ave. Rating
  • 12 vote(s)
  • Sent By
  • Brolis_Arturas
  • 2007-09-26 00:50:17
  • Collection
  • Add
From: Brolis_Arturas
www.akordai.org

KELIAS PAS TAVE

!!!PASTABA!!! sito tab'o tikslumas ~ 99,9%
!!!PATARIMAS!!! (neprivalomas): Jei gitara pazeminsit 1 taktu, dainos
nepagadinsit:))

Intro:
             grybzt       grybzt       grybzt
            /            /            /
    G      /     Cadd9  /     D      /     Am
e|--------3----|-------3----|-------2----|-------------|
B|--------3----|-------3----|-------3----|-------1r0---|
G|-------------|------------|----2-----2-|-----------0-|
D|-----0-----0-|----2-----2-|-0----------|----2--------|
A|-------------|-3----------|------------|-0-----------|
E|--3----------|------------|------------|-------------|

             grybzt       grybzt       grybzt
            /            /            /
    G      /     Cadd9  /     D      /     Am
e|--------3----|-------3----|-------2----|-------------|
B|--------3----|-------3----|-------3----|-------1r0---|
G|-------------|------------|----2-----2-|-----------0-|
D|-----0-----0-|----2-----2-|-0----------|----2--------|
A|-------------|-3----------|------------|-0-----------|
E|--3----------|------------|------------|-------------|


I stulpelis:
pakartoti intro, o nuo "...Dvelkia naktys, virpanciu salciu..." groti:

             grybzt       grybzt       grybzt    grybztgrybzt
            /            /            /         /     /
    G      /     G      /     Cadd9  /         / G   /
e|--------3----|-------3----|-------3----|----3-----3--|
B|--------3----|-------3----|-------3----|----3-----3--|
G|-------------|------------|------------|-------------|
D|-----0-----0-|----0-----0-|----2-----2-|-------------|
A|-------------|-2----------|-3----------|-3-----2-----|
E|--3----------|------------|------------|-------------|
          Dvelkia...

             grybzt    grybztgrybzt    grybzt
            /         /     /         /
    Am     /         / G   /  Cadd9  /     D
e|--------0----|----0-----3-|-------3----|-------2h3p2-|
B|--------1----|----1-----3-|-------3----|-------------|
G|-------------|------------|------------|----2--------|
D|-----2-----2-|------------|----2-----2-|-0-----------|
A|--0----------|-0-----2----|-3----------|-------------|
E|-------------|------------|------------|-------------|


II stulpelis:
viskas taip pat


Priedainis:
             grybzt       grybzt       grybzt
            /            /            /
    G      /     Gmaj7  /     Em7    /     Em7
e|--------3----|-------3----|-------3----|-------3----|
B|--------3----|-------3----|-------3----|-------3----|
G|-------------|------------|------------|------------|
D|-----0-----0-|----0-----0-|----2-----2-|----2-----2-|
A|-------------|------------|------------|------------|
E|--3----------|-2----------|-0----------|-0----------|
          Su tavim...
             grybzt    grybzt         grybzt
            /         /              /
    Am     /         /G      Cadd9  /     D
e|--------0----|----0----3-|-------3----|-------2----|
B|--------1----|----1----3-|-------3----|-------3----|
G|-------------|-----------|------------|----2-----2-|
D|-----2-----2-|-----------|----2-----2-|-0----------|
A|--0----------|-0----2----|-3----------|------------|
E|-------------|-----------|------------|------------|

             grybzt       grybzt       grybzt
            /            /            /
    G      /     Gmaj7  /     Em7    /     Em7
e|--------3----|-------3----|-------3----|-------3----|
B|--------3----|-------3----|-------3----|-------3----|
G|-------------|------------|------------|------------|
D|-----0-----0-|----0-----0-|----2-----2-|----2-----2-|
A|-------------|------------|------------|------------|
E|--3----------|-2----------|-0----------|-0----------|
          Man labai...
             grybzt   grybztgrybzt
            /         /    /
    Am     /         /G   /  Cadd9
e|--------0----|----0----3-|-------|
B|--------1----|----1----3-|-------|
G|-------------|-----------|-------|
D|-----2-----2-|-----------|-------|
A|--0----------|-0----2----|-3-----|
E|-------------|-----------|-------|

Vidurys:
G Cadd9 D Am (be picking'o)  x2


III stulpelis (be picking'o)


Priedainis  x4 (be picking'o)

Paskutinio priedainio galas:
     Cadd9   D
e|---3---|---2---|
B|---3---|---3---|
G|---0---|---2---|     <--- leti perbraukimai
D|---2---|---0---|
A|---3---|-------|
E|-------|-------|


Outro:
             grybzt       grybzt       grybzt
            /            /            /
    G      /     Cadd9  /     D      /
e|--------3----|-------3----|-------2-----|
B|--------3----|-------3----|-------3-----|
G|-------------|------------|----2-----2~-|
D|-----0-----0-|----2-----2-|-0-----------|
A|-------------|-3----------|-------------|
E|--3----------|------------|-------------|


Tai va! Piece of cake:)

================================================================================

PRIEDAI D.O.T. (Dlia Osobo Tupych:)))))))

Tekstas:
Ilgas kelias tarp trumpu naktu
Ilgas kelias bet man vel neramu
Dvelkia naktys virpanciu salciu
As noreciau priglust prie tavuju peciu

As miegociau tavo glebyje
Ir sapnuociau mudu danguje
Bet keliauju as kazkur toli
Kur dingai miela siam ilgam kely

Pried.
Su tavim kartu, but su tavim kartu
Prie taves prisiglausti
Man labai sunku
Kur tu pradingai pradingai

Tingios naktys zvaigzdes danguje
Pasiilgau but tavo glebyje
Keistos mintys sukasi ratu
Kelias pasibaigs ir mudu busim kartu

Pried. x4

Akordai:
G Cadd9 D Am Gmaj7 Em7
3 3     2 0  3	   3
3 3     3 1  3	   3
0 0	2 2  0	   0
0 2     0 2  0 	   2
2 3     x 0  2	   2
3 x     x x  2	   0


Simboliai:
grybzt       = didziuoju pirstu uzkabinamos dvi auksciausios stygos
                       (bent jau taip darau as:));
be picking'o = grojimas braukant akordus;
1r0          = pagroji styga pirmoje ladoje ir ja atleidi,kad
                       suskambetu laisva styga (vienu stygos uzkabinimu
                       2 garsai);
2h3p2        = pagroji styga antoje ladoje ir is karto, kol garsas
stiprus, neatlesdamas pirsto antoje ladoje prispaudi ja trecioje ladoje ir vel
atleidi, kad dar suskambetu anra lada (vienu uzkabinimu - 3 garsai);
  2~         = pavirpini styga antroje ladoje.