akordai.org - get guitar chords, learn to play!
Sign In
lt   en

Maironiui  v2  
Caramel Members

Chords / Tabs
1
2
3

  • Ave. Rating
  • 1 vote(s)
  • Sent By
  • AkordaiBot
  • 2006-09-15 11:16:43
  • Collection
  • Add
From: juodaplunksne <juodaplunksne(a)takas.lt>
To: gerb(a)bamba.lt
www.akordai.org

Caramel Members - Maironiui 
(zodziai Salomejos Neries 1942 1 15)



--------------------------
----------0--0h1p0--------
-------2------------2-----   2 kartus
----2------------------2--
-0------------------------
--------------------------

-------------------------------
-----------1-------------------
--------0-----0-----0----------
---0h2-----------2-------------  2 kartus
3------------------------------
-------------------------------

--------------------------------
-------------3------------------
----------0-----0---------------
-------0-----------0------------    2 kartus
----2-----------------2---------
-3------------------------------


-------------0------------------
-------3--------3-----3---------
----1-----1--------1------------
-2------------------------------    2 kartus
--------------------------------
--------------------------------

Am                          C
Ar gal&#235;jau i&#240; pusiaukel&#235;s sugr&#225;&#254;ti? 
                                  G
Ar gal&#235;jau - tais pa&#232;iais takais? 
                                 E7
Gena, gena pikto dievo ryk&#240;t&#235;, - 
Atgalion ir atsigræ&#254;t neleis.

Sako, mirdamas mane tu keikei, 
O numiræs sur&#251;st&#235;jai dar labiau. 
Ligi &#240;iol a&#240; negaliu vis atsipeik&#235;t:
Juk tave myl&#235;jau ir gerbiau.

Ir nereikia man didesnio nieko, 
Tik prie &#254;em&#235;s prisiglaust brangios, 
B&#251;ti t&#235;vi&#240;k&#235;s arimø slieku, 
M&#235;lyna rugiag&#235;le rugiuos.

P.S. del to G akordo, tai zinau, kad ne G, bet koks, negaliu pasakyt:) 
siaip susigroja ir su situo...
surinkta by juodaplunksne