akordai.org - get guitar chords, learn to play!
Sign In
lt   en

Maironiui  v1  
Caramel Members

Chords / Tabs
1
2
3

  • Ave. Rating
  • 4 vote(s)
  • Sent By
  • AkordaiBot
  • 2006-09-15 11:16:42
  • Collection
  • Add
From: Justas Lazutka <karo_dvasia(a)yahoo.com>
To: gerb(a)bamba.lt
www.akordai.org

Caramel Members. Maironiui

AKordai
 Am   C     Em7 E7   
--0---0--|--0---0--||
--1---1--|--3---3--||
--2---0--|--0---1--||	/ Svarbiausia informacija
--2---2--|--2---2--||	\ yra cia
--0---3--|--2---2--||
---------|--0---0--||


/ - slide (slydimas nuo vienos natos prie kitos)
h - hammer on (kai uzgauni styga ir,jai dar nenustojus skambet,groji sekancia nata)
b - bend (istempimas)
r - release [bend/release] (tas pats istempimas,skirtumas tik toks kad siuo atveju styga
istempus ja vel reikia grazinti i buvusia padeti kol ji dar skamba)

1/4 - stygos istempimas ketvirciu tono
1/2 - 	     -"-	pustoniu

***
INTRO 

  Ritmas    Am                                                    C                           
                       
E||------|--------------------------|--------------------------|--------------------------|---
-----------------------|
B||------|-----------0h-1h-0--------|-----------0h-1h-0--------|--------------1-----------|---
-----------1-----------|
G||------|--------2-----------2-----|--------2-----------2-----|-----------0-----0-----0--|---
--------0-----0-----0--|
D||------|-----2-----------------2--|-----2-----------------2--|-----0h-2-----------2-----|---
--0h-2-----------2-----|
A||------|--0-----------------------|--0-----------------------|--3-----------------------|--3
-----------------------|
E||------|--------------------------|--------------------------|--------------------------|---
-----------------------|




  Solo
E||------|--------------------------|--------------------------|--------------------------|---
---------------|
B||---8/-|--10----------------------|--------------8--10--8----|--5-----------------------|---
---------------|
G||------|--------------------------|--------------------------|--------------------------|---
---------------|
D||------|--------------------------|--------------------------|--------------------------|---
---------------|
A||------|--------------------------|--------------------------|--------------------------|---
---------------|
E||------|--------------------------|--------------------------|--------------------------|---
---------------|

***
Ritmas
  Em7                                                   E7                                    
            
--------------------------|--------------------------|--------------0-----------|-------------
-0-----------|
--------------3-----------|--------------3-----------|--------3--------3-----3--|--------3----
----3-----3--|
-----------0-----0-----0--|-----------0-----0-----0--|-----1-----1--------1-----|-----1-----1-
-------1-----|
-----0h-2-----------2-----|-----0h-2-----------2-----|--------------------------|-------------
-------------|
--2-----------------------|--2-----------------------|--------------------------|-------------
-------------|
--------------------------|--------------------------|--0-----------------------|--0----------
-------------|

Solo
--------------------------|--------------------------|--------------------------|-------------
-------------|
--------------------------|--------------------------|--------------------------|-------------
-------------|
-----5--7--9--------------|---------------7--9--7----|--4-----------------------|-------------
--4h-5h-4----|
--7-----------------------|--------------------------|--------------------------|-------------
-------------|
--------------------------|--------------------------|--------------------------|-------------
-------------|
--------------------------|--------------------------|--------------------------|-------------
-------------|

***
Rtmas           Am                                                    C                       
                           
--------------------------|--------------------------|--------------------------|-------------
-------------|
-----------0h-1h-0--------|-----------0h-1h-0--------|--------------1-----------|-------------
-1-----------|
--------2-----------2-----|--------2-----------2-----|-----------0-----0-----0--|-----------0-
----0-----0--|
-----2-----------------2--|-----2-----------------2--|-----0h-2-----------2-----|-----0h-2----
-------2-----|
--0-----------------------|--0-----------------------|--3-----------------------|--3----------
-------------|
--------------------------|--------------------------|--------------------------|-------------
-------------|

Solo
--------------------------|--------------------------|--------------------------|-------------
-------------|
-8/-10------10------------|--------------8--10--8----|--5-----------------------|-------------
-------------|
--------------------------|--------------------------|--------------------------|-------------
-------------|
--------------------------|--------------------------|--------------------------|-------------
-------------|
--------------------------|--------------------------|--------------------------|-------------
-------------|
--------------------------|--------------------------|--------------------------|-------------
-------------|

***
Ritmas
  Em7                                                   E7                                    
            
--------------------------|--------------------------|--------------0-----------|-------------
-0-----------|
--------------3-----------|--------------3-----------|--------3--------3-----3--|--------3----
----3-----3--|
-----------0-----0-----0--|-----------0-----0-----0--|-----1-----1--------1-----|-----1-----1-
-------1-----|
-----0h-2-----------2-----|-----0h-2-----------2-----|--------------------------|-------------
-------------|
--2-----------------------|--2-----------------------|--------------------------|-------------
-------------|
--------------------------|--------------------------|--0-----------------------|--0----------
-------------|

Solo
--------------------------|--------------------------|--------------------------|-------------
-------------|
--------------------------|--------------------------|--------------------------|-------------
-------------|
-----5--7/-9--------------|--------------7--9--7-----|--4-----------------------|-------------
--4h-5h-4----|
--7-----------------------|--------------------------|--------------------------|-------------
-------------|
--------------------------|--------------------------|--------------------------|-------------
-------------|
--------------------------|--------------------------|--------------------------|-------------
-------------|

***
Sita dalis grojama du kartus, tik antra karta n&#235;ra solo gitaros.									|
       \|/
  Am                                                    C                                     
            
--------------------------|--------------------------|--------------------------|-------------
-------------|	
-----------0h-1h-0--------|-----------0h-1h-0--------|--------------1-----------|-------------
-1-----------|	
--------2-----------2-----|--------2-----------2-----|-----------0-----0-----0--|-----------0-
----0-----0--|	
-----2-----------------2--|-----2-----------------2--|-----0h-2-----------2-----|-----0h-2----
-------2-----|	
--0-----------------------|--0-----------------------|--3-----------------------|--3----------
-------------|	
--------------------------|--------------------------|--------------------------|-------------
-------------|	
 Ar gal&#235;jau i&#240; pusiaukel&#235;s sugr&#225;&#254;ti...			Ar
gal&#235;jau tai pa&#232;iais takais....			

Solo
--------------------------|											
--------------------------|											
--------------------------|											
--5------------7----------|											
--------------------------|											
--------------------------|											

														
  Em7                                                   E7                                    
            	
--------------------------|--------------------------|--------------0-----------|-------------
-0-----------|	
--------------3-----------|--------------3-----------|--------3--------3-----3--|--------3----
----3-----3--|	
-----------0-----0-----0--|-----------0-----0-----0--|-----1-----1--------1-----|-----1-----1-
-------1-----|	
-----0h-2-----------2-----|-----0h-2-----------2-----|--------------------------|-------------
-------------|	
--2-----------------------|--2-----------------------|--------------------------|-------------
-------------|	
--------------------------|--------------------------|--0-----------------------|--0----------
-------------|	
Gena gena pikto Dievo ryk&#240;t&#235;...				Atgalion ir atsigræ&#254;t
neleis...				

***

"Priedainis"
Am			C
  Sako mirdamas mane tu keikei
			   Em
  O numiræs sur&#251;st&#235;jai dar labiau
			   Em7		
  Ligi &#240;iol a&#240; negaliu vis atsipeik&#235;t

  Juk tave myl&#235;jau ir gerbiau... X2



***
            Am                                                    C                           
                      
--------------------------|--------------------------|--------------------------|-------------
-------------|	
-----------0h-1h-0--------|-----------0h-1h-0--------|--------------1-----------|-------------
-1-----------|	
--------2-----------2-----|--------2-----------2-----|-----------0-----0-----0--|-----------0-
----0-----0--|	
-----2-----------------2--|-----2-----------------2--|-----0h-2-----------2-----|-----0h-2----
-------2-----|	
--0-----------------------|--0-----------------------|--3-----------------------|--3----------
-------------|	
--------------------------|--------------------------|--------------------------|-------------
-------------|	
 Ir nereikia man didesnio nieko...			Tik prie &#254;em&#235;s prisiglaust
brangios....			
														
  Em7                                                   E7                                    
            	
--------------------------|--------------------------|--------------0-----------|-------------
-0-----------|	
--------------3-----------|--------------3-----------|--------3--------3-----3--|--------3----
----3-----3--|	
-----------0-----0-----0--|-----------0-----0-----0--|-----1-----1--------1-----|-----1-----1-
-------1-----|	
-----0h-2-----------2-----|-----0h-2-----------2-----|--------------------------|-------------
-------------|	
--2-----------------------|--2-----------------------|--------------------------|-------------
-------------|	
--------------------------|--------------------------|--0-----------------------|--0----------
-------------|	
B&#251;ti t&#235;vi&#240;k&#235;s arimø slieku...				M&#235;lyna
rugiag&#235;le rugiuos...				X2

***


"Priedainis"
Am			C
  Sako mirdamas mane tu keikei
			   Em
  O numiræs sur&#251;st&#235;jai dar labiau
			   Em7		
  Ligi &#240;iol a&#240; negaliu vis atsipeik&#235;t

  Juk tave myl&#235;jau ir gerbiau... X2


Solo
											     1/2
--------------------|--------------------|---------------------|------------------|-----------
-----------|
--------------------|--------------------|---------------------|------------------|-----------
-----------|
--------------------|--------------------|---------------------|------------------|-----5--7--
8b---------|
--6/-7--------------|----------6/-7------|--2------------0--2--|------------------|--7--------
-----------|
--------------------|--------------------|---------------------|------------------|-----------
-----------|
--------------------|--------------------|---------------------|------------------|-----------
-----------|


                                  1/2                     1/2                       1/2 1/2   
                           
-------------------|--------------------------|-----------------------|----------------------|
---------------------|
-------------------|--------------------------|-----------------------|----------------------|
---------------------|
----------5--------|--------5--7--8r-7--5-----|--------5--8r-----5----|--5------5--7b---8r---|
----------5----------|
-------------------|--5--7-----------------7--|--5--7-----------------|----------------------|
-------------7--5----|
-------------------|--------------------------|-----------------------|----------------------|
---------------------|
-------------------|--------------------------|-----------------------|----------------------|
---------------------|


                                                                                              
  1/4   1/4   1/4          
-----------------------|----------|--------------------5--8--|--10----8--5----------5--|--8--1
0--10r---10r---10r---|
-----------------------|----------|--------------5--8--------|--------------8----8-----|------
---------------------|
------------------5----|----------|--------5--7--------------|-------------------------|------
---------------------|
--5------5--5h-7-------|----------|--5--7--------------------|-------------------------|------
---------------------|
-----------------------|----------|--------------------------|-------------------------|------
---------------------|
-----------------------|----------|--------------------------|-------------------------|------
---------------------|


                                  1/2                                   1/2                   
                          
--10--8--5-------------|--------------------|------------------------|------------------------
|---------------------|
------------8----------|----------16r-------|--------13------13--15--|--16b-------13----10----
|----8----5-----------|
-----------------------|--------------------|------------------------|------------------------
|--------------7------|
-----------------------|--------------------|------------------------|------------------------
|---------------------|
-----------------------|--------------------|------------------------|------------------------
|---------------------|
-----------------------|--------------------|------------------------|------------------------
|---------------------|


              1/2                                  1/2                   1/2                  
  1/2                   
-----------5--6r---------|----------|-----------5--6r---5-----|-----------6r----------|-------
--------------|
-----5--8----------8--8--|----------|-----5--8-------------8--|-----5--8---------8----|-------
--------------|
--7----------------------|----------|--7----------------------|--7--------------------|-------
---7r---5-----|
-------------------------|----------|-------------------------|-----------------------|-------
-----------7--|
-------------------------|----------|-------------------------|-----------------------|-------
--------------|
-------------------------|----------|-------------------------|-----------------------|-------
--------------|


                               1/2     1/2                                                    
                   
--------------------|---------------------|--------------------|----------|----------|--------
--|----------|
--------------------|---------------------|--------------------|----------|----------|--------
--|----------|
--------------------|----------7r---5--7r-|----5---------------|----------|----------|--------
--|----------|
----5--5------------|---------------------|-------7------------|----------|----------|--------
--|----------|
--------------------|---------------------|--------------------|----------|----------|--------
--|----------|
--------------------|---------------------|--------------------|----------|----------|--------
--|----------|


          1/2     1/2                                1/2     1/2                              
                           
---------------------|--------------------|---------------------|--------------------|
---------------------|--------------------|---------------------|--------------------|
----------7r---5--7r-|----5---------------|----------7r---5--7r-|----5---------------|
---------------------|-------7------------|---------------------|-------7------------|
---------------------|--------------------|---------------------|--------------------|
---------------------|--------------------|---------------------|--------------------|