akordai.org - get guitar chords, learn to play!
Sign In
lt   en

Raudoni Vakarai  v2  
jieva

Chords / Tabs
1
2
3
4

  • Ave. Rating
  • 26 vote(s)
  • Sent By
  • marty_kal
  • 2010-10-09 11:44:03
  • Collection
  • Add
Jieva (Ieva Narkutė) - Raudoni vakarai

Ši versija neatitinka originalios Jievos versijos. Ją sugrojo 
Mantas ir Jokūbas Bareikis. Nieko ten ypatingo, tiesiog 1/2 žemiau nei Jieva,
plius gitarinis intro. Jei kas padarys solo, kurį Bareikis įgroja, būtų malonu
jį pamatyti. 
Sėkmės ir jausmingo grojimo - tikrai labai graži daina. 

Intro:
e-----------------------------------------------
---------12--------12------12-----12-------12---
---9--9------9-9------9-9-----9-9----9-9--------
------------------------------------------------
------------------------------------------------
E-----------------------------------------------

e-------------------------------------------------------
---------12--------12---------12---------12---------12--
---9--9-------------------------------------------------
------------12--12-----12--12----12--12-----12--12------
--------------------------------------------------------
E-------------------------------------------------------


e--------------------------------------------------------------------/12~~
---------12-10-8---8--10---12-10-8---8--10~~-----12-10-8-----8--10---/12~~
---7--7----------9-----------------9----------------------9---------------
--------------------------------------------------------------------------
--------------------------------------------------------------------------
E-------------------------------------------------------------------------


Bm                            D
Mano saujoj dūzgia bitės, tavo plaučiuose vanduo,
A                             E
Mano saujoj gęsta rytas, liūdnas kaip kareivio šuo.
Bm                            D
Mano rankos žvyro pilnos, mala sniegą debesų,
A                             E
Verkia, rauda mano girnos, as smingu tau ant pečių.

Bm             D
Aš atgulsiu, tu pareisi,
A              E
kur raudoni    vakarai....
Bm                D
Priešas trauksis, viskas keisis,
A                  E
Mano Lietuva bedale, ar bijai?
 
Bm                            D
Pūgos kilo trečią kartą, krito bitės is delnų,
A                             E
Gaudė, verkė miesto varpas, dingo broliai tarp miškų.
Bm                             D
Visą naktį skundės liepoms aimanuojantys beržai,
Bm                             E
Kraujo raudoni užlieti, mūsų pustusčiai namai.

Bm             D
Man atgulus, nesugrįžai...
A               E
kur raudoni   vakarai....
Bm              D
Tuščio kelio, tuščias kryžius, 
A                   E
Mano Lietuva bedale, ar bijai?

x 2



Sėkmės!

Parinko marty_kal (martynas.kalvelis(a)gmail.com)