akordai.org - get guitar chords, learn to play!
Sign In
lt   en

Užrauktukas  
Smoriginas, Kostas

Chords / Tabs

  • Ave. Rating
  • 3 vote(s)
  • Sent By
  • AkordaiBot
  • 2006-09-15 11:17:54
  • Collection
  • Add
From: Algis <ramsylt(a)yahoo.com>
www.akordai.org


 
   Atrinko: Algis   (ramsylt(a)yahoo.com)



                  K. Smoriginas - Uztrauktukas

  
   
   Pabudes nuo lempos sviesos     Linksmai isizios uztrauktukas      
       D             D7M                Bm       
                                                             
E||----2------2------2-------2---|------2-------2-------2-----2---|
B||----3-----3-------2------2----|------3-------3-------3-----3---|
G||----2----2--------2-----2-----|------4-------4-------4-----4---|
D||--0-----0-------0------0------|--------------------------------|
A||------------------------------|--2---------------2-------------|
E||------------------------------|----------2---------------2-----|
   
   ir meiliai nusisypsos           Mazais geleziniais dantukais
         Em                              A               
                                                                          
E||------0-------0----0--------0--|------0----0----0----------0---|
B||------0-------0----0-------0---|------2----3----2---------3----|
G||------0-------0----0------0----|------2----2----2--------2-----|
D||-------------------------2-----|------------------------2------|
A||------------------------2------|--0-------0----0-------0-------|
E||--0-------3-------0----3-------|-------------------------------|


PR.  Kai sniegas uz lango gyles,   Tau pauksciai mojuos pirstukais
         G              Gm6     
                                         D             Adim  Cdim   
E||------3--------3-----3------3--|------2----2--------2-----5----|
B||------3-------3------3-----3---|------3----3--------1----(4)---|
G||------0------0-------3----3----|------2----2--------2-----5----|
D||------------0-------2----2-----|--0-------0--------1-----4-----|
A||-----------2-------------------|-------------------------------|
E||--3-------3--------------------|-------------------------------|

    Kai niekas taves nemyles         Tave pabuciuos uztrauktukas
                      A                             D  
                                                 X----------------- mazdaug cia
E||-------------------0--------0---|----------------2----2---2----| pasigirsta
B||-------------------2-------3----|----------------3----3---3----| uztrauktuko
G||-------------------2------2-----|----------------2----2---2----| garsas.
D||-------------------------2------|---------------0----0----0----|
A||--------------2---0-----0-------|------------------------------|
E||--0---2---3---------------------|------------------------------|
   
PR.  Kai sniegas uz lango gyles     Tau pauksciai mojuos pirstukais
         G              Gm6           D             Adim    Cdim

E||------3--------3-----3------3--|---2------2------2-------5-----|
B||------3-------3------3-----3---|---3------3------1------(4)----|
G||------0------0-------3----3----|---2------2------2-------5-----|
D||------------0-------2----2-----|--0------0------1----4---------|
A||-----------2-------------------|-------------------------------|
E||--3-------3--------------------|-------------------------------|
                     
    Kai niekas taves nemyles         Tave pabuciuos uztrauktukas
                      A                                    D7M

E||-------------------0--------0---|-----------------------2----2-|
B||-------------------2-------3----|--2--2--3--5--3--2-----2----2-|
G||-------------------2------2-----|--0--0--0--0--0--0-----2----2-|
D||-------------------------2------|----------------------0----0--|
A||--------------2---0-----0-------|--0--0--0--0--0--0------------|
E||--0---2---3---------------------|------------------------------|
                                                      
 
Spintelej sagos barskes 
Drebes susale piestukai
Nuogi dezelej gules 
Ir tyliai juoksis degtukai

PR.
PR.

Tyloj laikrodelis tikses
Galvoj jam suksis ratukai
O tavo stalciui krebzdes
nauji mazi ustrauktukai

PR.
PR.



Dainuoti reik prikimusiai, sodriu apyzemiu balsu ;)
Dazniausiai taktu gale, dar karta ar du grojamas pries-
tai buves akordas, bet cia jau pagal jusu vaizduote.
Gali but daug klaidu, uz ka labai atsiprasau,taip pat 
nera cia pradzios,nes ten viskas gan paprastai grojasi.
Daina is bardu vakaro. Gero grojimo :)