akordai.org - get guitar chords, learn to play!
Sign In
lt   en

Kelias Pas Tave  v9  
RebelHeart

Chords / Tabs
1
2
3
4
5
6
7
8
9
10

  • Ave. Rating
  • 13 vote(s)
  • Sent By
  • AkordaiBot
  • 2006-09-15 11:16:00
  • Collection
  • Add
From: "Cloudmaker" <cloud(a)kalnieciai.lt>
WWW.AKORDAI.ORG

Parinko: mano gitaros mokytojas per entaji Rebelheart koncerta

Rebelheart - KELIAS PAS TAVE 


      G            Cadd9            D             AM7
E-------3-----|-------3-----|-------2-----|--------------|
B-------3-----|-------3-----|-------3-----|-------1/0----|
G----0-----0--|----0-----0--|----2-----2--|-----------0--|
D-------------|-------------|-0-----------|----2---------|
A-------------|-3-----------|-------------|-0------------|
E-3-----------|-------------|-------------|--------------|

        G       B/G         Em7       Em7          Cadd9        Cadd9           D            
D
E-----3----|-----3----|-----3----|-----3----|-------3-----|-------3-----|-------2-----|-------
2-----|
B-----3----|-----3----|-----3----|-----3----|-------3-----|-------3-----|-------3-----|-------
3-----|
G---0---0--|---0---0--|---0---0--|---0---0--|----0-----0--|----0-----0--|----2-----2--|----2--
---2--|
D----------|----------|----------|----------|-------------|-------------|-0-----------|-0-----
------|
A----------|----------|----------|----------|-3-----------|-3-----------|-------------|-------
------|
E-3--------|-2--------|-0--------|-0--------|-------------|-------------|-------------|-------
------|


     G           B/G         Em7         Em7         Am7                C         D
E-----3----|-----3----|-----3----|-----3----|-----------------|----------|----------|
B-----3----|-----3----|-----3----|-----3----|-----1-----1--1--|-----1----|-----1----|
G---0---0--|---0---0--|---0---0--|---0---0--|-----0-----0--0--|-----0----|-----0----|
D----------|----------|----------|----------|---2---2---------|---2---2--|---2---2--|
A----------|----------|----------|----------|-0-------0---2---|-3--------|-3--------|
E-3--------|-2--------|-0--------|-0--------|-----------------|----------|----------|


KELIAS PAS TAVE 
Rebelheart

 G     C9      D       Am7    
Ilgas kelias tarp trumpu naktu
Ilgas kelias, bet man vel neramu.
 G      B/G     Em7     Em7
Dvelkia naktys virpanciu šalciu,
 Cadd9  Cadd9   D       D
Aš noreciau priglust prie Tavuju peciu.

Aš miegociau Tavo glebyje
Ir sapnuociau mudu danguje.
Bet keliauju aš kažkur toli.
kur dingai, miela, šiam ilgam kely?


 G       G        Em          Am7
Su Tavim kartu, but su Tavim kartu,
     
 C             D
Prie Taves prisiglausti.

 G       G        Em          Am7
Man labai sunku, kur Tu pradingai,

C      D
Pradingai?


Ilgos naktys, žvaigždes danguje,
Pasiilgau but Tavo glebyje.
Keistos mintys sukasi ratu.
Kelias pasibaigs, ir mudu busim kartu.


shitas wariantas welnishkaj primena originala...
Netgi Sakyciau jog cia ir yra originalas!

|CLouDmaker|