akordai.org - get guitar chords, learn to play!
Sign In
lt   en

Trys  v2  
Mamontovas, Andrius

Chords / Tabs
1
2

  • Ave. Rating
  • 1 vote(s)
  • Sent By
  • AkordaiBot
  • 2006-09-15 11:15:40
  • Collection
  • Add
     Kūrinys - A. Mamontovas "Trys"
     Albumas - Šiaurės naktis, pusė penkių
 Transponavo - Monteskje [meshka(a)email.lt]

www.akordai.com

 Įžanga/žodžiai [grojama klasikine gitara]
  Dsus2
e---------0---------------0---------------0---------------5-------|
B-----3-5-----3-------3-5-----3-------3-5-----3-------3-0-----3---|
G---2-------2---2---2-------2---2---2-------2---2---2-------2---2-|
D-0---------------0---------------0---------------0---------------|
A-----------------------------------------------------------------|
E-----------------------------------------------------------------|
  C#add9
e---------0---------------0---------------4---------------4-------|
B-------4---4-----------4---4-------------------------------------|
G-----6-------6-------6-------6-------6-4-----6-------6-4-----6---|
D---6-----------6---6-----------6---6-------6---6---6-------6---6-|
A-4---------------4---------------4---------------4---------------|
E-----------------------------------------------------------------|

 Klavišų/fleitos solo
e-16-14-12-14-17-16-----16-14-12-14-17-16-------------------------|
B-----------------------------------------------7--9------7--9----|

 Improvizuokite!