akordai.org - get guitar chords, learn to play!
Sign In
lt   en

Trys  v1  
Mamontovas, Andrius

Chords / Tabs
1
2

  • Ave. Rating
  • 1 vote(s)
  • Sent By
  • AkordaiBot
  • 2006-09-15 11:15:06
  • Collection
  • Add
Andrius Mamontovas
'Puse penkiu. Siaures nakties' 1998 m.

e-------0-------|-------0-------|-------0-------|---------5---|-4-----------|
H-----3-----3---|-----3-----3---|-----3-----3---|-----3-------|-------4-----|
G---2-----------|---2-----------|---2-----------|---2---------|-----2---2---|
D-0-------------|-0-------------|-0-------------|-0-----------|---2---------|
A---------------|---------------|---------------|-------------|-4-----------|
E---------------|---------------|---------------|-------------|-------------|

e---------------|-------4-------|-------4-------|
H-------4-------|---------------|---------------|
G-----2-----2---|-----2---------|-----2---------|
D---2-----------|---2-----------|---2-----------|
A-4-------------|-4-------------|-4-------------|
E---------------|---------------|---------------|

Pasiklausius ten yra ivairios varijacijos. Manau jos nesunkios ir
kiekvienas jas galetu iskart pagroti.

Jeigu kas zinote geresni varijanta arba pilnesni ( su fleitos natomis )
atsiuskite: mKancler(a)takas.lt

Parase:Martynas Kancleris
E-Mail:mKancler(a)takas.lt


Guitar Chords Used

Not Found...