akordai.org - get guitar chords, learn to play!
Sign In
lt   en

Marso Kanjonai Solo  
Andrius Mamontovas

Chords / Tabs

  • Ave. Rating
  • 4 vote(s)
  • Sent By
  • Blinkaz
  • 2007-11-17 17:15:52
  • Collection
  • Add
From: Blinkaz
www.akordai.org

Cia mano pirmas rimtesnis bandymas uzrasyti tabus, taip kad del netikslumu prasom nepykti.
Taigi, ta
mazyti solo po antro priedainio as groju taip:

e|--9------9------9----12------10------9-----|
B|----10-----10-----10----10------10-----10--|
G|-------9------9------------9-------9-------|
D|-------------------------------------------|
A|--0----------------------------------------|
E|-------------------------------------------|

e|--9-------9-------9---7~---|
B|----10------10-------------|
G|-------11------11----------|
D|--0------------------------|
A|---------------------------|
E|---------------------------|

e|--7------7------7----7h10------10------10--|
B|----10-----10-----10------10------10-------|
G|-------9------9--------------9-------9-----|
D|-------------------------------------------|
A|-------------------------------------------|
E|--0----------------------------------------|

e|--9------9------9h10p9~--|
B|----10-----10------------|
G|-------9------9----------|
D|-------------------------|
A|--0----------------------|
E|-------------------------|

Nesuprantantiems:
~ - leisti skambeti
p - pull off
h - hammer on