akordai.org - get guitar chords, learn to play!
Sign In
lt   en

Mėlynoji Paukštė  v2  
Kernagis, Vytautas

Chords / Tabs
1
2

  • Ave. Rating
  • 3 vote(s)
  • Sent By
  • AkordaiBot
  • 2006-09-15 11:17:42
  • Collection
  • Add
From: Domas <juros_ezys(a)one.lt>
www.akordai.org


Melynoji Paukšte
ž. ir m. Vytautas Kernagis
<tab by juros_ezys www.tai-ne.visiems.lt>

Am, G, C, Dm, Dm/C, Dm/B
Kodel žmones nerado melynosios paukštes?
Am, G, C, Dm, Dm/C, Dm/B
Kodel žmones užmuše sužeista peleda?

      Am, G, C, Am, AmSus4, E.
      Am, G, C, Am, AmSus4, E7.

Pr. O aš dainuoju apie tave, o gal ir ne, o gal ir ne. 2x

Kodel jus neradot melynosios paukštes?
Kodel jus užmušet sužeista peleda?

Pr. 2x

Kodel aš neradau melynosios paukštes?
Kodel aš užmušiau sužeista peleda?

Pr. Bet aš dainuoju apie tave, o gal ir ne, o gal ir ne. 2x

||FINALAS||
Jei nori dainuosiu tik tau, tik tau, tik tau. 2x
...tik tau, tik tau, tik tau...

Stulpelis:

    Am       G          C                   Dm       Dm/C       Dm/B
E||------------------|-----------------|------------------|----------0h1p0----|
B||-----1--------0---|-----1-----------|-----3--------3---|-----3----------3--|
G||---2---2----0---0-|---0---0---------|---2---2----2---2-|---0---0----------0|
D||------------------|-----------------|-0----------------|-------------------|
A||-0----------------|-3--------3-2--3-|----------3-------|-2-----------------|
E||----------3-------|-----------------|------------------|-------------------|

Užbaigimas:
Am         G         C                   Dm          Dm/B           ||FINALAS||
-------0--------3-|-------0---------|------------------------|----------------|
-----1--------3---|-----1-----------|-----3-3---------3-3-3--|-----1-----3----|
---2--------0-----|---0-------------|---2-----2-----0-------0|---2-----0----2-|
------------------|-----------------|-0---------0------------|--------------2-|
-0----------------|-3--------3-2--3-|-------------2----------|-0------------0-|
----------3-------|-----------------|------------------------|-------3--------|

Akordai:
Am	x02210
G	320003
C	x32010
Dm	xx0231
Dm/C	x3x231
Dm/B	x2x031