akordai.org - get guitar chords, learn to play!
Sign In
lt   en

Mes akmenys  v2  
Diktatūra

Chords / Tabs
1
2
3

  • Ave. Rating
  • 2 vote(s)
  • Sent By
  • AkordaiBot
  • 2006-09-15 11:16:50
  • Collection
  • Add
From: Viktor <allach(a)delfi.lt>
www.akordai.org


Diktatura - Mes akmenys

Akordai:
   C#m   A     H     ?1    ?2    H5    C#5   D#5   F#5
e| |-4-| |-5-| |-7-| |-7-| |-7-| |---| |---| |---| |---|
B| |-5-| |-5-| |-7-| |-10| |-9-| |---| |---| |---| |---|
G| |-6-| |-6-| |-8-| |-8-| |-8-| |-4-| |-6-| |-8-| |-11|
D| |-6-| |-7-| |-9-| |-7-| |-7-| |-4-| |-6-| |-8-| |-11|
A| |-4-| |-7-| |-9-| |-9-| |-9-| |-2-| |-4-| |-6-| |-9-|
E| |-4-| |-5-| |-7-| |-7-| |-7-| |---| |---| |---| |---|


Intro:
  C#m               A                H               ?1        ?2
e|--------|--------|----------------|----------------|----------------|
B|----5---|----5---|----5-------5---|----7-------7---|----10------9---|
G|--6---6-|--6---6-|--6---6---6---6-|--8---8---8---8-|--8---8---8---8-|
D|--------|--------|7-------7-------|9-------9-------|9-------9-------|
A|4-------|4-------|----------------|----------------|----------------|
E|--------|--------|----------------|----------------|----------------|

e|--------|--------|----------------|----------------|----------------|------------------|
B|----5---|----5---|----5-------5---|----7-------7---|----10------9---|----10------9-----|
G|--6---6-|--6---6-|--6---6---6---6-|--8---8---8---8-|--8---8---8---8-|--8---8---8---8---|
D|--------|--------|7-------7-------|9-------9-------|9-------9-------|9-------9-------9-|
A|4-------|4-------|----------------|----------------|----------------|------------------|
E|--------|--------|----------------|----------------|----------------|------------------|


Versas:

   C#m              C#m               A               A
e|----------------|----------------|----------------|----------------|
B|--5-----5-----5-|--5-----5-----5-|--5-----5-----5-|--5-----5-----5-|
G|----6-----6-----|----6-----6-----|----6-----6-----|----6-----6-----|
D|------6-----6---|------6-----6---|------7-----7---|------7-----7---|
A|4---------------|4---------------|7---------------|7---------------|
E|----------------|----------------|----------------|----------------|

   H                H                             ?1                 ?2        
e|----------------|----------------| galo tai   |----------------|----------------|
B|--7-----7-----7-|--7-----7-----7-| neparinkau,|--10----10----10|--9-----9-----9-|
G|----8-----8-----|----8-----8-----| bet is     |----8-----8-----|----8-----8-----|
D|------9-----9---|------9-----9---| bedos      |------7-----7---|------7-----7---|
A|9---------------|9---------------| galima     |9---------------|9---------------|
E|----------------|----------------| groti taip:|----------------|----------------|

C#m
Mirštantis rytas juos kviete i kova
A
Jie kele ginklus - i kara išjojo
H
Tevyne juos šauke, tevyne kviete
?1		?2
Jie ejo i muši laisves laimeti

Plaka širdis mus viduje
Už žeme už krauja, už tai kas yra
Plaka širdis už proteviu žygius
Už musu namus, už musu tevyne

Kruvinos rankos, kruvinos akys
Mes nevergausim, mes busim akmenys
Busime plienas, busim ugnis
Mes busime vejas, vejas - viltis

	H5         C#5     D#5    D#5
	Mes akmenys ir ugnis
	Mes plienas ir viltis
	Visos Lietuvos
	Ir kol mes cia tol ažuolai žaliuos

H5		C#5
Tebuna šalis amžiais laisva
F#5		D#5
Ir jeigu taip bus paskutine kova
Ir jeigu tai bus paskutine givybe
Garbingai numirs neišduos ji tevynes

Žusim veliava ji uždengs musu kunus
Žeme pasleps mus savo rumuos
Žaliuos ažuolai jie primins mušio vieta.
Primins mušio vieta ir krauja pralieta.

Už varda didinga musu tautos
Už laisve tevynes brangios
Iškelkime veliavas suspauskim kumšcius
Pagerbkime žuvusius karius

Ir veliavas laisvas jas vejas kilnos
Širdis akmenine nepasiduos
Mergaite gražuole daina dainuos
Ir kris ašarele ant žemes šventos

Ir kris ašarele ant žemes šventos
Mergaite gražuole daina dainuos
Širdis akmenine nepasiduos
Veliavas laisvas jas vejas kilnos

	Mes akmenys ir ugnis
	Mes plienas ir viltis
	Visos Lietuvos
	Ir kol mes cia tol ažuolai žaliuos

Pergrojimas:

e|-----------------------------|         |------------------------------------|
B|-----------------------------|         |------------------------------------|
G|-----------------------------|         |------------------------------------|
D|6-6-7----6-6-9---6-6-11--9-7-|         |6-6--6-6--6-6--7---6-6--6-6--6-6--9-|
A|6-6-7----6-6-9---6-6-11--9-7-|         |6-6--6-6--6-6--7---6-6--6-6--6-6--9-|
E|4-4-5----4-4-7---4-4-9---7-5-|  po to  |4-4--4-4--4-4--5---4-4--4-4--4-4--7-|