akordai.org - get guitar chords, learn to play!
Sign In
lt   en

Dzūkų Partizanų Himnas  v3  
diktatūra

Chords / Tabs
1
2
3

  • Ave. Rating
  • 3 vote(s)
  • Sent By
  • AkordaiBot
  • 2006-09-23 17:56:27
  • Collection
  • Add
From: zpoan
www.akordai.org

atlikėjas: DIKTATŪRA
daina: D.P.H.(dzūkų Partizanų himnas)         



                Dzūkų  Partizanų  Himnas



ar sninga lyja nakty dieną
ar šalčiai kausto mus
žinau aš ginklų rūšį vieną
kiekvienas čia ramus

mums plieno šalmai galvas dengia
širdis pilna garbės
??? granatom apsisprendę
ranka nesudrebės

        MES PARTIZANAI VYRS I VYRĄ
        MES VIEŠPAČIAI MIŠKŲ
2X      AR DAINOS SKAMBA AR ŠVINAS BYRA
        VISUOMET MUMS RAMU

TĖVYNĖS meilė aiškiai spindi
akyse ir veiduos
ir žemės jie tėvų nei sprindžio
niekuomet neatiduos

maža TĖVYNĖ, bet galinga
iš praeities laiku
ir tokių vyrų jai nestinga
praeit- keliams didiems

        MES PARTIZANAI VYRS I VYRĄ
        MES VIEŠPAČIAI MIŠKŲ
4X      AR DAINOS SKAMBA AR ŠVINAS BYRA
        VISUOMET MUMS RAMU

Įžanga:

-----0-----0-----0---0-----0-----0---2-----2-----2---2-----2-----2-
-------1-----1---------1-----1---------3-----3---------3-----3-----
---2-----2-----2---2-----2-----2---4-----4-----4---4-----4-----4---
-------------------------------------------------------------------
-------------------------------------------------------------------
-------------------------------------------------------------------

-----7-----7-----7---7-----7-----7---0-----0-----0---2-----2-----2-||
-------8-----8---------8-----8---------1-----1---------3-----3-----||
---9-----9-----9---9-----9-----9---2-----2-----2---4-----4-----4---|| 2x
-------------------------------------------------------------------||
-------------------------------------------------------------------||
-------------------------------------------------------------------||

-----7-----7-----7---7-----7-------
-------8-----8---------8-----8---8-
---9-----9-----9---9-----9-----9---
-----------------------------------
-----------------------------------
-----------------------------------

-----------------7---7-5---5-3-------------------5---5-3---3-2--||
-----8-----8-----------------------7-7---7-7---7----------------||
-9-9---9-9---9-9-----------------7-----7-----7------------------|| 2x
----------------------------------------------------------------||
----------------------------------------------------------------||
----------------------------------------------------------------||
||



dainos akordai:

E: 02xxxx
C: x35xxx
G: 35xxxx
D: x57xxx
B: x24xxx
A: x02xxx
F#:24xxxx



E C G D B

priedainis:

E C G
....
C B A G F# E