akordai.org - get guitar chords, learn to play!
Sign In
lt   en

Zombie  v3  
Cranberries

Chords / Tabs
1
2
3

  • Ave. Rating
  • 0 vote(s)
  • Sent By
  • eseras
  • 2010-03-22 04:27:29
  • Collection
  • Add
 Zombie
Cranberries

pragrojimas Em  C  G  Dadd11







Em       C                 G              Dadd11
Another head hangs lowly, hild is slowly taken
Em                 C                 G               Dadd11
And the violence caused such silence we must be mistaken
         Em                      C
But you see it's not me it's not my family
         G                             Dadd11
In your head, in your head they are fighting


             Em                            C
With their tanks and their guns and their bombs and their guns
         G                            Dadd11
In your head, In your head they are crying
         Em            C        G                 Dadd11
In your head, in your head, zombie, zombie, zombi-e-i-e-e-i
                Em            C        G                 Dadd11
What's in your head, in your head, zombie, zombie, zombi-e-i-e-e-i



Em        C                G               Dadd11
Another mother's breakin' heart is taking over
Em                 C              G              Dadd11
When the vioence causes silence, we must be mistaken
          Em                    C
It's the same old theme, since 1916,
         G                                  Dadd11
In your head in your head, they're still fighting



             Em                            C
With their tanks and their guns and their bombs and their guns
         G                            Dadd11
In your head, In your head they are crying
         Em            C        G                 Dadd11
In your head, in your head, zombie, zombie, zombi-e-i-e-e-i
                Em            C        G                 Dadd11
What's in your head, in your head, zombie, zombie, zombi-e-i-e-


panaudoti akordai


Em (022000)
C  (332010)
G  (320033)
Dadd11 (200033)



Elektrinei

pragrojimas Em  C  G  Dadd11


-----------------------------------------------------------
-----------------------------------------------------------
----------------------------------5--5--5--5--5--5--2--5---
----2--2--2--2--2--2-----2--------5--5--5--5--5--5--0--5---
----2--2--2--2--2--2-----2--------3--3--3--3--3--3-----3---
----0--0--0--0--0--0--2--0---------------------------------



-----------------------------------------------------------
-----------------------------------------------------------
-----------------------------------------------------------
-----------------------------------------------------------
---2--2--2--2--2--2--0--2-------0--0--0--0--0--0--0--0-----
---3--3--3--3--3--3--0--3-------2--2--2--2--2--2--2--2-----



-----------------------------------------------------------
-----------------------------------------------------------
-----------------------------------------------------------
--------------------------------------------------0--------
--------------------------------3--3--3--3--3--3-----3-----
---0--0--0--0--0--0--2--0----------------------------------


-----------------------------------------------------------
-----------------------------------------------------------
-----------------------------------------------------------
-----------------------------------------------------------
---------------------0-------------------------------------
---3--3--3--3--3--3-----3------2--2--2--2--2--2--2--2------