akordai.org - get guitar chords, learn to play!
Sign In
lt   en

Knocking On Heavens Door  v2  
Guns N' Roses

Chords / Tabs
1
2

  • Ave. Rating
  • 4 vote(s)
  • Sent By
  • Merlinas
  • 2011-01-24 04:33:12
  • Collection
  • Add
=============
G    320033
D    000232
Am   002210
C    032010 
=============

 
 G            D                 C
-3---3--------------2-0-------|-----------------0--------------------|----
-3-----3---3------3-----3---3-|----------1--------------1------------|----
-0-------0------2---------2---|-0------0---0----------0---0-0------0-|----
-0------------0---------------|-0h2----------2------2-------0h2------|----
-2----------------------------|------3---------------------------3---|----
-3----------------------------|--------------------------------------|----

 G            D                     C
-3---3--------------2-0-----------|--------------------------------------|
-3-----3---3------3-----3---0-----|-------1--------1------1----1-1-1-0---|
-0-------0------2---------2-------|-----0---0-----------0---0--0-0-0-0---|
-0------------0-------------------|---2-------2-------2--------2-2-2-0---|
-2--------------------------------|-3-----------3--------------3-3-3-0---|
-3--------------------------------|--------------------------------------|



Pačioje dainoje galima naudoti G (320003) akordą jis raiškiau, gražiau skamba.
Taip pat pragrojus pusę D akordo laiko galima pereiti i Dsus4 (000233) akordą
irgi nebloga variacija iseina :)


G          D               Am
Mamma take this badge from me
G          D         C
I can't use it anymore
G                 D             Am
It's getting dark, too dark to see
G              D                       C
Feels like I'm knockin' on heaven's door


G             D                      Am 
Knock, knock, knockin' on heaven's door,
G             D                      C 
Knock, knock, knockin' on heaven's door,
G                  D                      Am 
Ooh, knock, knock, knockin' on heaven's door
G             D                      C 
Knock, knock, knockin' on heaven's door


Mama, put my guns in the ground
I can't shoot them anymore
That cold black cloud is comin' down
Feels like I'm knockin' on heaven's door


Knock, knock, knockin' on heaven's door,
Knock, knock, knockin' on heaven's door,
Ooh, knock, knock, knockin' on heaven's door
Knock, knock, knockin' on heaven's door