akordai.org - get guitar chords, learn to play!
Sign In
lt   en

Būk nepasiekiama  
Vairas

Chords / Tabs

  • Ave. Rating
  • 2 vote(s)
  • Sent By
  • AkordaiBot
  • 2006-09-15 11:16:27
  • Collection
  • Add
From: Nerijus K <sinmodus(a)yahoo.com>
To: gerb(a)bamba.lt
www.akordai.org

Vairas - Buk Nepasiekiama

       2X                                       2X                                  
E--6-6-5-6-5-3-|-5-5-3-5-3-1-|-5------5-1-|-3-3-1-3-1-0-|-1-1-3-5-3-1-|-5------5-1-|
B--8-8-6-8-6-5-|-6-6-5-6-5-3-|-6------6-3-|-5-5-3-5-3-1-|-1-1-5-6-5-3-|-6------6-3-|
G--------------|-------------|------------|-------------|-------------|------------|
D--------------|-------------|------------|-------------|-------------|------------|
A--------------|-------------|------------|-------------|-------------|------------|
E--------------|-------------|------------|-------------|-------------|------------|
     2X                        F
E--3-3-1-3-1-0-|-1-1-3-5-3-1-|-1------0-1-|
B--5-5-3-5-3-1-|-1-1-5-6-5-1-|-1---1-3----|
G--------------|-------------|-2----------|
D--------------|-------------|-3----------|
A--------------|-------------|-0----------|
E--------------|-------------|-1----------|


F                    Gm
Rodos daug metu jau pramintais kanciu keliais,                     
C7                        F             C7
As ejau, nors zinau, man kiek sakei neateit.
F
Nesvarbu, kas bus, as tikrai kantrus,
       Gm
Geliu puokste, vyno taure dus.
       C7
Juk ne pirmakart, ne paskutinikart
     F               C7
Patikek manim, as kantrus.
         Gm                C7
  pried. Buk nepasiekiama, buk isdidi, pikta-
         F
         Man tai visai nesvarbu,
            Gm              C7
         As eisiu be asaru, nesiu tau pasakom
           F
         Nutiestus i laime kelius
         F
         O-o
         Gm                C7
         Buk nepasiekiama, buk isdidi, pikta-
         F
         Man nesvarbu...

Ar gali isklausyt, ka noriu pasakyt,
Ar gali vienasyk nors be dziaugsmo pasitikt.
Nezinau, kas bus, kiek ziedu prazus,
Nepasieke tavo artumos.
Patikek manim, as tikrai kantrus,
Bet kazin ar tie jausmai nezus.

 pried.   _______,,_______

Rodos daug metu jau pramintais kanciu keliais,
As ejau, nors zinau, man kiek sakei neateit.
Nezinau, kas bus, kiek ziedu prazus,
Nepasieke tavo artumos.
Patikek manim, as tikrai kantrus,
Bet kazin ar tie jausmai nezus.

pried.   2X                                                  Sekmes grojant!;)
                                                                 Nerijus