akordai.org - get guitar chords, learn to play!
Sign In
lt   en

Apokalipsinis Romanas  
Smoriginas, Kostas

Chords / Tabs

  • Ave. Rating
  • 3 vote(s)
  • Sent By
  • AkordaiBot
  • 2006-09-15 11:15:04
  • Collection
  • Add
intro  2x

E----------10----10-----------9----9---------------12----12-----------------10------10--------
-|
B-------7------7-----------------------------------------------------------7--------7---------
------|
G---------------------------9-----9--------------9------9-------------------------------------
------|
D--0-------------------------------------------------------------------0----------------------
-------|
A----------------------0---------------------0------------------------------------------------
-------|
E---------------------------------------------------------------------------------------------
--------|

Uzhdainis 2x

E------------2------------------2-------------------------------------------2\0---------------
-----|
B---------3----3------------3----3----------------3-------------------------------------------
----|
G------2---------2-------2----------2---------0-----0----------------2------------------------
---|
D--0----------------------------------------2------------2---------2--------------------------
-----|
A---------------------2------------------2----------------------0-----------------------------
-----|
E---------------------------------------------------------------------------------------------
-------|

Toliau eina… pavadinkime tai priedainiu, nors shitame gabale priedainio ishvis nera

Priedainis 

E-------------------------------------------------------0-----------2-------------------------
-----|
B-----------7-------------7----------0------0-------0--0-------3----3-------------3\0---------
-|
G--------7---7---------8----8-----3------3-------0-----0---2---------2--------1---------------
|
D-----7--------7-----7--------------------------------------0------------------2--------------
---|
A--5---------------6---------------------------------------------------------2----------------
----|
E--------------------------------0-------2-------3--------------------------------------------
----|

Po pirmo karto eina toks perejimas:

E-------3--------2----------0----------5--|
B-----0-----------------------------5------|
G-------------2---------2-------6---------|
D-------------------------------------------|
A--0------0---------0---------------------|
E-------------------------------------------|

Antra karta sugroja paprastai ir toliau vel eina intro, tik groja jau dvi gitaros ir ritmas
truputi kitoks

Outro

E----------10---------9----------7--------5-------3------2-----0\2---2------|
B------7-----------------------------------------------------------------3------|
G------------------9-----------7--------6-------4-----2------0--------2------|
D---0--------------------------------------------------------------------0------|
A--------------0-----------0--------0-------------------------------------------|

Textas:

Man akiu nagraudina geltono zhibinto angis,
Ash neieshkau namu, nes namu niekada neturejau

"Priedainis" 2X
Tik sedejau, i svetima dangu zhiurejau,
Kol pulsuojanchios zhvaigdzhdes spygliais man ishdure akis

Kol i jas ishsilyde menulio blizgus aliuminis,
Raibuliavo vanduo I skirtingas pasaulio puses

"Priedainis" 2X
Tu laimingas tik tol, kol kazhkas pasilenks prie peties
Atsiduses ishtars, kad likai ish genties paskutinis 

Ir paklaiksi lyg paukshtis I uzhianchia jura lekias
Ash namu neturiu ir stakta man kaktos nepalies

"priedainis"2X
Ash eiliu nerashau, ash tik sunkiai dejuoju eiles
Kai pasibaige shvente ir dievas gesina zhvakes.


Guitar Chords Used

Not Found...
 

People Who Play This Song Also Play

Not Found...