akordai.org - get guitar chords, learn to play!
Sign In
lt   en

Savižudžio Kupletai  v2  
Mamontovas, Andrius

Chords / Tabs
1
2

  • Ave. Rating
  • 6 vote(s)
  • Sent By
  • AkordaiBot
  • 2006-09-15 11:17:00
  • Collection
  • Add
From: marius <margerijonaz(a)one.lt>
www.akordai.org


Andrius Mamontovas - Savizudzio kupletai

Taip grojamas intro ir kaip intarpai po kiekwino zodziu stulpelio

e----1-3-1------------------0------------------------------|
B---3--------1h3p1-1p0-----0-0------1-1h3-3----------------|
G--2--------2-------------1---1----2-------2---------------|     
D-0--------2-------------2-----2--2------------------------|
A-----------------------2----------------------------------|
E----------------------------------------------------------|



e------1-3-1------------------0----------0-0---------------|
B---(3)--------1h3p1-1p0-----0-0---------1-1---------------|
G--(2)--------2-------------1---1--------2-2---------------|     
D-(0)--------2-------------2-----2-------------------------|
A-------------------------2-------------0------------------|
E----------------------------------------------------------|


taip grojama dainuojant

e-----1--------0---------0----------0----------------------|
B----3-3------1-1-------0-0--------1-1---------------------|
G---2--------2---------1---1------2------------------------|     
D--0--------2---------2-----2----2-------------------------|
A-0--------0---------2----------0--------------------------|
E----------------------------------------------------------|



zodzius jej patynka dajna zinosit arba susiraskit