akordai.org - get guitar chords, learn to play!
Sign In
lt   en

Baltoji varnelė  v1  
Mamontovas, Andrius

Chords / Tabs
1
2
3

  • Ave. Rating
  • 9 vote(s)
  • Sent By
  • AkordaiBot
  • 2006-09-15 11:15:50
  • Collection
  • Add
From: TINY Knight - LinSz(a)one.lt
To: gerb(a)bamba.lt
WWW.AKORDAI.COM

A.Mamontovas ir S.Zaltauskaite
Baltoji varnele
Parinko Ignas

   C     Am    G
E--0--|--0--|--3--|
B--1--|--1--|--3--|
G--0--|--2--|--0--|
D--2--|--2--|--0--|
A--3--|--0--|--2--|
E--0--|--0--|--3--|

Akordai grojami sitaip:
       C            Am           G
E------------|------------|------------|
B------1-----|------1-----|------3-----|
G----0---0---|----2---2---|----0---0---|
D------------|------------|------------|
A--3---------|--0---------|--2---------|
E------------|------------|------------|

Pereinant is Am i C sugrojama

     Am(intarpas)C
E----------0-----0-------|
B------1-----3-3-1---1---|
G----2---2-------0-0---0-|
D----------------2-------|
A--0-------------3-------|
E----------------0-------|

Pereinant i G labai panasu

     Am(intarpas)G
E----------0-----3-------|
B------1-----3-1-3---3---|
G----2---2-------0-0---0-|
D----------------0-------|
A--0-------------2-------|
E----------------3-------|

Is pradziu gal kie sudetinga, bet po to priprasit


BALTOJI VARNELĖ
C                                      Am
Koks vakaras ilgas, kaip siandien man gelia
C                                  Am
Nuskink man jazmina, baltoji varnele
G                                  Am
Nuskink man jazmina balciausiu ziedu.
G                                Am
Sakyk man, kad zemej taves nerandu.

Koks vakaras ilgas, tokio nemaciau.
Nuskink man, varnele, jazmina, greiciau
Nuskink man ziedeli is pat pazemes,
Nuskink, savo lupom, ziedus pazymek.

Koks vakaras ilgas, baltoji varnele,
Nuskink man jazmins, ne balts - tai zalia.
Nuskink man jazmina... Neskinki, nereikia!
Baltoji varnele, atskrisk ar ateik.

-----------------------------------
Jei ka kreipkites LinSz(a)one.lt