akordai.org - get guitar chords, learn to play!
Sign In
lt   en

Šviesų Birželio Vidurnaktį  
Kernagis, Vytautas

Chords / Tabs

  • Ave. Rating
  • 3 vote(s)
  • Sent By
  • AkordaiBot
  • 2006-09-15 11:17:43
  • Collection
  • Add
From: Domas <juros_ezys(a)one.lt>
www.akordai.org


Vytautas Kernagis - Šviesu birželio vidurnakti
ž. Vytautas Kernagis
m. Marcelijus Martinaitis
<tab by juros_ezys www.tai-ne.visiems.lt>

   Dsus4/E                    Dadd11
E||-----------3--------------|-----------3-------------|
B||--------3-----3-----3-----|--------2-----2----------|
G||-----0-----------0-----0--|-----0-----------0-------|
D||--------------------------|--------------------2----|
A||--------------------------|--0----------------------|
E||--0-----------------------|-------------------------|

  D                        H7                   Dsus4/E
----------2-------------|----------2--------3-|----------3--------------|
-------3-----3-----3----|-------0-----0-------|-------3-----3-----3-----|
----2-----------2-----2-|----2-----------2----|----0-----------0-----0--|
-0----------------------|---------------------|-------------------------|
------------------------|-2-------------------|-------------------------|
------------------------|---------------------|-0-----------------------|


   Dadd11                 Bm^                                                   
-----------3-----------|-2-----------------|--------------------||
--------2-----2--------|-3-----------------|--------------------||
-----0-----------0-----|-4-----------2-----|-----2---------2----||
--------------------2--|-4----2h--4-----2h-|--4-----2h--4-------||
--0--------------------|-2-----------------|------------------2-||
-----------------------|-2-----------------|--------------------||

Išves mane baltas sodininkas dar nepabudusi
Šviesu birželio vidurnakti kabanciais lieptais.
Tarp žemes ir menesio vandenys tyvuliuos ir žvaigždes žydes
Kaip lelijos.

Matysiu aš: eina mergaite nuo žiedo ant žiedo lelijom;
Ir krenta ant menesio lengvas mergaites šešelis.
Ir ves mane baltas sodininkas kabanciais lieptais
Dar nepabudusi...

Kas gi pažadins mane šviesu birželio vidurnakti?
Šviesu birželio vidurnakti kas gi pažadins mane?
Kas gi mane atpažins, kas gi mane atpažins?
Kada aš jau nebeatpažistamas.

Akordai:
D	xx0232
Dsus4/E	0xx033
Dadd11	x00023
H7	021202
Bm	224432