akordai.org - get guitar chords, learn to play!
Sign In
lt   en

Jūreivis  v2  
Keistuoliai

Chords / Tabs
1
2
3

  • Ave. Rating
  • 1 vote(s)
  • Sent By
  • AkordaiBot
  • 2006-09-15 11:14:48
  • Collection
  • Add
Atsiuntė Toshas
-----------------

                              
E||------0---0-------0---0---|
B||------0---0-------0---0---|
G||------1---1-------1---1---|
D||--------------2-----------|
A||--2-----------------------|
E||--------------------------|

------0---0-------0---0---|
------1---1-------1---1---|
------2---2-------2---2---|
--------------2-----------|
--0-----------------------|
--------------------------|

------0---0-------0---0---|
------0---0-------0---0---|
------1---1-------1---1---|
--------------2-----------|
--2-----------------------|
--------------------------|

------0---0-------0---0---|
------1---1-------1---1---|
------2---2-------2---2---|
--------------2-----------|
--0-----------------------|
--------------------------|

------0---0-------0---0---|
------0---0-------0---0---|
------1---1-------1---1---|
--------------2-----------|
--2-----------------------|
--------------------------|

------0---0-------1---1---|
------1---1-------3---3---|
------2---2-------2---2---|
--------------0-----------|
--0-----------------------|
--------------------------|

------0---0-------0---0---|
------1---1-------0---0---|
------2---2-------1---1---|
--------------------------|
--0-----------2-----------|
--------------------------|

------0---0-------1---1---|
------1---1-------3---3---|
------2---2-------2---2---|
--------------0-----------|
--0-----------------------|
--------------------------|

------0---0-------0---0---|
------1---1-------0---0---|
------2---2-------1---1---|
--------------------------|
--0-----------2-----------|
--------------------------|

------0---0-------0---0---|
------1---1-------1---1---|
------2---2-------2---2---|
--------------------------|
--0-----------0-----------|
--------------------------|

------0---0---0---------||
------1---1---1---------||
------2---2---2---------||
------------------------||
--0-----------0---------||
------------------------||