akordai.org - get guitar chords, learn to play!
Sign In
lt   en

eik peklon  v1  
Kazlas, Rolandas

Chords / Tabs
1
2

  • Ave. Rating
  • 2 vote(s)
  • Sent By
  • Feliksas
  • 2007-09-17 23:33:05
  • Collection
  • Add
From: Feliksas
www.akordai.org

Intro:


|---7---7---7---7-|---7---7---7---7-|---5---5---5---5-|---5---5---5---5--|
|-----7-------7---|-----7-------7---|-----5---7---5---|-----5---7---5----|
|-9-------9-------|-9-------9-------|-7---------------|-7----------------|
|-----------------|-----------------|-----------------|------------------|
|-----------------|-----------------|-----------------|------------------|
|-----------------|-----------------|-----------------|------------------|


|---7---7---7---7-|---7---7---7---7-|---8---8---7---7-|-8-7---7---7---7-|
|-----7---8---7---|-----7---8---7---|-----8-------8---|-----8-------8---|
|-9---------------|-9---------------|-9-------7-------|---------7-------|
|-----------------|-----------------|-----------------|-----------------|
|-----------------|-----------------|-----------------|-----------------|
|-----------------|-----------------|-----------------|-----------------|


|---8---8---7---7-|-8-7---7---8---8-|---8---8---8---8-|---8---8---3---3-|
|-----8-------8---|-----8-------8---|-----8-------8---|-----8-------3---|
|-9-------7-------|---------9-------|-9-------9-------|-9-------4-------|
|-----------------|-----------------|-----------------|-----------------|
|-----------------|-----------------|-----------------|-----------------|
|-----------------|-----------------|-----------------|-----------------|



|---3---3---3---3-|---3---3---3---3-|---5---5---5---5-|---7---7---7---7-|
|-----3-------3---|-----3-------3---|-----7---5---7---|-----7---8---7---|
|-5-------4-------|-4-------4-------|-7---------------|-9---------------|
|-----------------|-----------------|-----------------|-----------------|
|-----------------|-----------------|-----------------|-----------------|
|-----------------|-----------------|-----------------|-----------------|


|-7----|
|-7----|
|-9----|
|------|
|------|
|------|







Em                        D
Buvo vasara kaitri, tėvas gerė degtinį
                          Em
mūsų tėvas gerė degtinį,
                 C     G   
mes abu miegojom žaginy
         Em             C     G  
Neturėjom nei ko valgyt, nei ko gert
        C                C/G            G    

Reikėjo vogt, 

      Em 
kaip baisu,
            D       Em    

Eik peklon…..
---

Em                        D
Ėjom vogti obuolių,nakty pusę keturių,
Bet šuva begiojo prie namų
Ir pamatė mus abu,
Ir parbėgom išdraskytom subinėm
Žaginin... Sarmata, eik peklon...
---
Grėbė šieną mergos dvi, pažinojom jas abi
Baisiai geros mergos buvo dvi
Tik tai mes abu labai durni
Iš jaunystės nežinojok kų daryt
Žaginy... Sarmata, eik peklon...
---
Bus dar vasara kaitri, mes jau gersim degtinį
Mes jau gersim degtinį...
Tegul tėvas guli žaginy
Prašom tegul anas abolių...
Pavogtų... Tegul eina peklon.