akordai.org - get guitar chords, learn to play!
Sign In
lt   en

Kalėdų eglutė, tabai  
Kardiofonas

Chords / Tabs

  • Ave. Rating
  • 1 vote(s)
  • Sent By
  • AkordaiBot
  • 2006-09-15 11:16:19
  • Collection
  • Add
Froma: Ignas Savas <knucas(a)crazyland.com>
To: gerb(a)bamba.lt
WWW.AKORDAI.ORG

Kardiofonas - Kaledu eglute
Aurhor - knucas
E----------------|-------------|-----------------|--------------|
B----------------|-------------|-----------------|--------------|
G----------------|-------------|-----------------|--------------|
D----------------|-------------|-----------------|--------------|
A---3-5-3-5-3-5-7|--3-5-7-5-3-5|--5-3-5-3-5-3-5-7|-5-3-5-3-5-3--|
E-5--------------|5------------|3----------------|-------------5|

E----------------|---------------|---------------|--------------|
B----------------|---------------|---------------|--------------|
G----------------|------4-5-4----|---------------|--------------|
D-----7-7--5-7-7-|--5-7-------7--|--------6------|--------------|
A--------8-------|8-------------7|--5-7-7-- 8-7-5|--7-5-7-5-----|
E-5-5------------|---------------|8--------------|5---------7-5-|