akordai.org - get guitar chords, learn to play!
Sign In
lt   en

Raudoni Vakarai Intro  
jieva

Chords / Tabs

  • Ave. Rating
  • 0 vote(s)
  • Sent By
  • Paulius12
  • 2012-02-25 08:42:58
  • Collection
  • Add
Intro:
e|--------------------------------------|
B|---------8--------8-------8-------8---|
G|---5--5------5-5------5-5-----5-5-----|
D|--------------------------------------|
A|--------------------------------------|
E|--------------------------------------|

e|--------------------------------------|
B|--------8--------8--------8-------8---|
G|--5--5--------------------------------|
D|-----------8--8-----8--8----8--8------|
A|--------------------------------------|
E|--------------------------------------|

e|-------3-------------3----------------|
B|---------6p4---4h6-----6p4---4--6-8-6~|
G|-3--3--------5-------------5----------|
D|--------------------------------------|
A|--------------------------------------|
E|--------------------------------------|

e|----------------------(8)-------------|
B|---------4---4h6------(8)-------------|
G|-----------5--------------------------|
D|--------------------------------------|
A|--------------------------------------|
E|--------------------------------------|


Guitar Chords Used

Not Found...
 

People Who Play This Song Also Play

Not Found...