akordai.org - get guitar chords, learn to play!
Sign In
lt   en

Paveikslas  v2  
Foje

Chords / Tabs
1
2

  • Ave. Rating
  • 1 vote(s)
  • Sent By
  • AkordaiBot
  • 2006-09-15 10:21:15
  • Collection
  • Add
From: TINY Knight - LinSz(a)one.lt
To: gerb(a)bamba.lt
WWW.AKORDAI.COM

Zodziai Andriaus Mamontovo
Muzika Foje
Foje - Paveikslas
Parinko Ignas

   A     E     G   Gbmaj 


E--0--|--0--|--3--|--2--|
B--2--|--0--|--3--|--2--|
G--2--|--1--|--0--|--3--|
D--2--|--2--|--0--|--4--|
A--0--|--2--|--2--|--4--|
E--0--|--0--|--3--|--2--|


Main part:

E----------------|----------------|
B----------------|----------------|
G---------2-2----|----------------|
D-----2-2-----2-2|---------2-2----|
A-0--------------|-----2-2-----2-2|
E----------------|-0--------------|


E----------------|----------------|
B----------------|----------------|
G----------------|----------------|
D---------4-4----|---------3-3----|
A-----4-4-----4-4|-----3-3-----3-3|
E-2--------------|-1--------------|


Sitaip visa daina ir grojama, bet vienam
grojant sito tiesiog atrodo permazai. Tai
Vietoje pagrindines melodijos tinka ir toks
grojimas:

Is pradziu viena nata bosine, o po to akordu
braukymas. A akordo bosine nata butu laisva A
E akordo - laisva E(zema) 
G akordo - 3 lade E(zema)
Gbmaj akordo - 2 lade E(zema)

Taip ir groji

A E G ir Gbmaj(arba F#maj) 

Ritmas kiekvienam pagal save...


Intro: Main part 2x

Ir toliau ta pati groti, o dainuoti
pradedama nuo trecios natos.

TEXTAS:

Ant sienos kazkada kabeeo paveikslas
Ten kur dabar tuscia deme
Kas isdazys ta balta, balta dema
As nezinau, nebent ruduo

Priedainis:
O kur gi tas mano paveikslas
Tas nuostabus, žavus paveikslas
Atspekit, kur dabar paveikslas
Pas mus tuoj bus žavus paveikslas

Ankšciau šioj vietoj buvo langas
Žvelge pro ji kažkas i žvaigždes
O dabar cia tiktai balta balta siena
Ir matosi ant jos muses deme

Priedainis.


O kur gi dingo mano paveikslas
Tik vienas aš ir težinau
Jis buvo toks sunkus, kad viena gražia diena
Eme, ir nukrito man ant galvos
Jis buvo toks sunkus, kad viena gražia diena
Eme, ir nukrito man ant galvos