akordai.org - get guitar chords, learn to play!
Sign In
lt   en

Tėvynei  
Diktatūra

Chords / Tabs

  • Ave. Rating
  • 3 vote(s)
  • Sent By
  • AkordaiBot
  • 2006-09-15 11:14:58
  • Collection
  • Add
DIKTATŪRA - TĖVYNEI
Iš albumo "Mūsų - Jūsų"

Akordus parinko TOMoshukAS
Kalinys(a)centras.lt



Kiekvienas tikras lietuvis ją turtų mokėti...


 *Intro*

  Am                               Dm
  +               *                *               *
e|--------------------------------|--1-----1---------1-----1-------|
B|--1-----1---------1-----1-------|----3-----3---3-----3-----3---3-|
G|----2-----2---2-----2-----2---2-|------2-----2---------2-----2---|
D|------2-----2---------2-----2---|0---------------0---------------|
A|0---------------0---------------|--------------------------------|
E|--------------------------------|--------------------------------|

  G                       C        Am
  *               *                *               *
e|--------------------------------|--------------------------------|
B|--3-----3---------3-----------5-|--1-----1---------1-----1-------|
G|----4-----4---4-----4-------5---|----2-----2---2-----2-----2---2-|
D|------5-----5---------5---5-----|------2-----2---------2-----2---|
A|5---------------5-------3-------|0---------------0---------------|
E|--------------------------------|--------------------------------|



 *Verse*

Am              Dm      
Žemė kvepėjo ir aidas nešė riksmus
        G   
Ten kur liejosi kraujas
          C           Am
Ir tekėjo prakaitas sūrus

Am               
Ten kur žaliuoja ąžuolai
        Dm
Ten kur upių vingiai, kur gražiausi ežerai
G                   C      Am
Ten aš gimiau - ten mano namai

Am
Ten kur nuo karo sužeistą kūną
  Dm
Išgydo šventos drobės švelnumas
G                C         Am
Ten mūsų žemė graži ir tvirta

Ten kur su ugnim širdyje
Į kovą stojo tauta
Ten kur Trispalvė iškelta - ten Lietuva

Ten kur jūra skalauja gintaro krantą
Ten kur tūkstančiai didvyrių paguldė galvas
Ten dabar gyvenam aš ir tu

Ten kur milžinai gyveno
Ten kur mergaitės dainas dainavo
Ten dabar gyvenam aš ir tu


 	 *Chorus*

	    Am           
	Neturėsim jėgų netgi pašliaužti
	   Dm
	Iš mūsų tekės paskutinis kraujas
               G
	Bet suspaudę kumščius
	        C          Am
	Vėliavą kelsim aukštai


 *Verse*

Savo žemę suspausim kumšty
Vėliavą iškelsim ir eisim į žūtį
Įsiklausyk ir išgirsi 
Kaip priešai iš mūsų bando namus atimti

Kaip kalvėj kala plieno kalaviją
Kaip verkia moterys netekusios vyrų
Verkia priešai pralaimėję 
Kai lietuviškas dainas neša vėjas


	 *Chorus*
     
	Neturėsim jėgų netgi pašliaužti
	Iš mūsų tekės paskutinis kraujas
	Bet suspaudę kumščius
	Vėliavą kelsim aukštai


 *Verse*

Didinga istorija mūsų tautos
Duoda gyvenimui jėgos
Didžiuokis tuo, jog esi lietuvis
Iškelk galvą - nebūk paniuręs

Dėkui, Dieve, kad teka kraujas
Lietuviškas kraujas, lietuviškas kraujas
Dėkui, Dieve, kad teka kraujas
Lietuviškas kraujas - tai mūsų kraujas


	 *Chorus*
     
	Neturėsim jėgų netgi pašliaužti
	Iš mūsų tekės paskutinis kraujas
	Bet suspaudę kumščius
	Vėliavą kelsim aukštai




Tai, daina užvežanti. Tačiau yra keli pastebėjimai:

  Kadangi po ranka neturiu fonogramos, ir tikrai negreit
  turėsiu, tai parašiau paprastesnę dainos grojimo versiją.
  Siekint pagroti pagal fonogramą, po pirmo priedainio pasikeičia
  harmonija - įsijungia fūzuotos gitaros, pasikeičia vokalas.
  Kadangi su akustine gitara taip groti pakankamai nepatogu,
  harmoniją palikau tokią pačią, kaip ir pirmam stulpelyje.
  Na o jei kam įdomu, tai, kiek atsinemu, po priedainio daina
  skamba tik grojant vienam kordui - E. Tiesą sakant, net ir
  priedainis turėtų būti grojamas ne tokiais akordais,
  tačiau... Jei kas gali suveikti šį gabalą, mielai pasėdėčiau
  ir parašyčiau tikslesnius akordus...
  
  Antra vertus, akordus G ir C geriau groti bare...


Guitar Chords Used