akordai.org - get guitar chords, learn to play!
Sign In
lt   en

Caro nebuvo  
Atika

Chords / Tabs

  • Ave. Rating
  • 6 vote(s)
  • Sent By
  • AkordaiBot
  • 2006-09-15 11:17:23
  • Collection
  • Add
From: Sharkis <Sharkis1986(a)yahoo.com>
www.akordai.org


C	X32010
C/B	X22010
Am	X02210

intro x2

 C       C/B     Am	
------------------------------------
----0--1----0--1----0--1--3--1--0---
---0-0-----0-0-----2-2--2--2--2-----
--2---2---2---2---2---2--2--2--2----
-3-------2-------0------------------
------------------------------------


stulpelis

 C       C/B     Am 
--0--0----0--0----0--0----0--0------
---1--1-1--1--1-1--1--1-1--1--1-1---
-------0-------0-------2-------2----
------------------------------------
-3-------2-------0-------0----------
------------------------------------

+ antra gitara pritaria tais paciais akordais C C/B Am

C
i uosta laivais
C/B            Am
traukiniais is uosto
mieloji atleisk
neturiu kas paguostu

zuvedros kirai
vandenu karaliai
man taip reikia taves 
tik taves nerealiai

pragrojimas x2: C C/B Am 

progines sukneles 
vyrai tartum frakais
ir as isivaizduoju 
net girdziu kaip jie tau, kaip jie tau sako:

dieve gink panele 
cia tau nevieta
gal todel tu dabar nei 
nuoga nei aprengta

pragrojimas x2

i miesta takeliais
is miesto autostradom
net nesvarbu
ieskojom ar suradom

viespatie saugok
nuo griuvanciu namu
kazkaip gera nuo minties
kad kolkas kolkas cia ramu

pragrojimas x2

su vienais romanai
su kitais romansai
elgetoms karietos
ponai dideliais "zhansais"

caro nebuvo, caro nebuvo, caro nebuvo...