akordai.org - get guitar chords, learn to play!
Sign In
lt   en

Zombiai  v3  
Antis

Chords / Tabs
1
2
3

  • Ave. Rating
  • 3 vote(s)
  • Sent By
  • AkordaiBot
  • 2006-09-15 11:15:26
  • Collection
  • Add
From: robertax999(a)one.lt
To: gerb(a)bamba.lt
WWW.AKORDAI.COM


Atrinko: Robertas U.

Intro:
|-10-10-10-10-10-9-12-12-|
|-------------------------------|
|-------------------------------|
|-------------------------------|
|-------------------------------|
|-------------------------------|

|-10-10-10-10-10-9--------|
|-----------------------11-9--|
|-------------------------------|
|------------------------------|
|------------------------------|
|------------------------------|

|-------------------------------|
|-------------------------------|
|-------------------------------|
|-10-10-10-10-10-9-12-12-|
|-------------------------------|
|-------------------------------|

|------------------------------|
|------------------------------|
|------------------------------|
|-10-10-10-10-10-9-------|
|-----------------------11-9-|
|-----------------------------|


D         A      Hm         G

Nelauktai iškilo grėsmė,

Gandai aplink - ateina zombiai.

Naktim nemiegu ir griebia nervas,

Grasina zombiai skaudžiai kаst.


Pried.
D          A            Hm    G

Gyvenk kaip galima švariau,

Pikti kenkėjai tupi tundroj.

Paklausyk, paklausyk ar girdi -

Zombiai atrieda atidunda.



Kaip apsigint jau žinau,

Apsišluot ir apsiplauti.

Kitaip užpuls padarai -

Ropliai, graužikai ir zombiai.



Balandžių daug Ukmergėj

Jie nekalti, tačiau apsėsti.

Neglostyk jų visiškai,

Zombiais gali tu apsikrėsti.


Klausimai ar papildimai yra laukiami  robertax999(a)one.lt