akordai.org - get guitar chords, learn to play!
Sign In
lt   en

Paukščiai  v2  
Aktorių trio

Chords / Tabs
1
2
3
4

  • Ave. Rating
  • 15 vote(s)
  • Sent By
  • tadasy
  • 2010-08-11 11:53:51
  • Collection
  • Add
Intro (kartoti 2 kartus):

E-7------8------10--|--7------7------0--|--3------5------2--|--3------3------3p2p0
B---0------0-------0|----0------0------0|----0------0------0|----0------0---------
G-----0------0------|------0------0-----|------0------0-----|------0------0-------
D-------------------|-------------------|-------------------|---------------------
A-------------------|-------------------|-------------------|---------------------
E-0-----------------|--0----------------|--0----------------|--0------------------

E-------0-----------|-------2-----------|-------0-----------|-------------------|
B-----0----0----0---|-----3----3----3---|-----0----0----0---|------0------0-----|
G---0--------0----0-|---2--------2----2-|---0--------0----0-|---0------0--------|
D-------------------|-------------------|-------------------|-------------------|
A--3----------------|-2-----------------|-------------------|-3------2----------|
E-------------------|-------------------|-0-----------------|---------------3---|

Uždainis:

E--------3-----------|-------3-----------|-------2-----------|-------2-----------|
B------0----0----0---|-----1----1----1---|-----1----1----1---|-----0----0----0---|
G----0--------0----0-|---0--------0----0-|---2--------2----2-|---0--------0----0-|
D--------------------|-------------------|-0-----------------|-------------------|
A--------------------|-0-----------------|-------------------|-------------------|
E--0-----------------|-------------------|-------------------|-3-----------------|

E--------3-----------|-------3-----------|-------2-----------|-------2-----------|
B------0----0----0---|-----1----1----1---|-----1----1----1---|-----2----2----2---|
G----0--------0----0-|---0--------0----0-|---2--------2----2-|---2--------2----2-|
D--------------------|-------------------|-0-----------------|-------------------|
A--------------------|-0-----------------|-------------------|-2-----------------|
E--0-----------------|-------------------|-------------------|-------------------|

Priedainis:

E--------0-----------|-------2-----------|-------2-----------|-------0-----------|
B------1----1----1---|-----1----1----1---|-----0----0----0---|-----0----0----0---|
G----0--------0----0-|---2--------2----2-|---0--------0----0-|---0--------0----0-|
D--------------------|-0-----------------|-------------------|-------------------|
A--0-----------------|-------------------|-------------------|-3-----------------|
E--------------------|-------------------|-3-----------------|-------------------|

E--------0-----------|-------2-----------|-------0-----------|-------0-----------|
B------1----1----1---|-----0----0----0---|-----0----0----0---|-----0----0----0---|
G----2--------2----2-|---2--------2----2-|---0--------0----0-|---1--------1----1-|
D--------------------|-------------------|-------------------|-------------------|
A--------------------|-2-----------------|-------------------|-------------------|
E--1-----------------|-------------------|-0-----------------|-0-----------------|

Daina pabaigiama šitaip:

E-------0-----------|-------------------|
B-----0----0----0---|-----0------0------|
G---0--------0----0-|---0------0------0-|
D-------------------|-------------------|
A-------------------|-3------2----------|
E-0-----------------|---------------3---|

Baltais pūkeliais krinta snaigės
Iš viesulingų debesų.
Išskrido paukščiai link dausų.
Tylu, jų meilės giesmės baigės.

Priedainis:

Lai krykštauja toli nuo mūs,
Užmiršę darganas ir lietų!
Išskridę paukščiai į namus
Sugrįš pavasarį saulėtą.


Kokia baugi rimtis aplinkui,
Kaip viskas tuščia ir nyku,
Kai negirdėti virš laukų
Sparnuotų mūsų giesmininkų!

Priedainis:

Drauguži mielas, būk ramus:
Šaltos žiemos ranka gruoblėta
Išbaidė juos, - bet į namus
Jie grįš pavasarį saulėtą.


O mes, besparniai žemės paukščiai,
Juos pasitinkam akimis
Ir, vėtrą vėl nujausdami,
Grėsmingon šiaurėn žiūrim baugščiai.

Priedainis:

Likimas piktas ir nuožmus
Dažnai lyg žaislą žmogų mėto.
Pavydžiu paukščiams: į namus
Jie grįš pavasarį saulėtą.

Jie lėks viršum kalnų ir klonių,
Jie lėks melsvais dangaus keliais
Ir vėl, kaip pernai, nusileis
Ant seno ąžuolo galiūno.

Priedainis:
 
Ir džiugins jaunus ir senus
Giesmė, tiek sykių jau girdėta.
Išskridę paukščiai į namus
Sugrįš pavasarį saulėtą!  


Paklausykit dainą, susidėliokit kur kokie žodžiai, aš negaliu to padaryt, nes negaliu
čia keisti raidžių dydžio, (sumažint). Dar prieš ketvirtą stulpelį Aktorių Trio
pakartoja įžangą. Žodžiu, paklausykit dainą, išsinagrinėkit, susidėliokit. Tabai yra
tikslūs. Linksmo grojimo. :)