akordai.org - get guitar chords, learn to play!
Sign In
lt   en

Ir jei kada nors taip iš tikro nutiktų  
Wake'N'seE

Chords / Tabs

  • Ave. Rating
  • 0 vote(s)
  • Sent By
  • karolisw
  • 2020-06-16 13:37:00
  • Collection
  • Add
Posmelis
  Dm          Am        B          F     C  
E|----0-----|----0-----|----0-----|-----------|
B|---6-6-6--|---6-6-6--|---6-6-6--|-----------|
G|--7---7-7-|--0---0-0-|--7---7-7-|---0----0--|
D|-0--------|-7--------|-8--------|--7----0-0-|
A|----------|----------|----------|-8----7----|
E|----------|----------|----------|-----8-----|

Priedainis
  Dm         B          F           F    C        
E|----8-----|----8-----|----8-----|-----------|
B|---6-6-6--|---6-6-6--|---6-6-6--|-----------|
G|--7---7-7-|--7---7-7-|----------|---0----0--|
D|-0--------|-8--------|--7---7-7-|--7----0-0-|
A|----------|----------|-8--------|-8----7----|
E|----------|----------|----------|-----8-----|


Prieš mirčiai uždarant mano akis
Tau mano meile išpažintis
Ir jei tu galvoji, kad dingo viltis 
Tegu nesustoja plakus širdis

Kiek daug žodžių juodų kaip anglis
Dūmais išskris pro sukąstus dantis
Kaip krištolas ašaroj tavo paskęs
Ir ašarų jūra vėl prasitęs

Priedainis
Prašau atleisk
Mane paleisk
Turiu nutilt
Man laikas kilt

Ir jei kada nors taip iš tikro nutiktų
Ir jei kada nors man nepavyktų
Priversti, kad tavo gyvenime snigtų
Akimirkom tom, kurias mudu palikom 


Guitar Chords Used

 

People Who Play This Song Also Play

Not Found...