akordai.org - get guitar chords, learn to play!
Sign In
lt   en

Malandrino  
Gogol Bordello

Chords / Tabs

  • Ave. Rating
  • 0 vote(s)
  • Sent By
  • Tom0i
  • 2018-08-29 09:50:43
  • Collection
  • Add
E|-----0-2-0-2-0-2-0------0-2-0-2-0-2-0-|
B|-----0-0-0-0-0-0-0------0-0-0-0-0-0-0-|
G|---1------------------1---------------|
D|--------------------------------------|
A|--------------------------------------|
E|-0------------------0-----------------|


E|-----0-/5-4-2h4p2-0|
B|-----0------------|
G|---1--------------|
D|------------------|
A|------------------|
E|-0----------------|

                        E

My birth I can hardly remember 
                        C#m
But I remember from the start 
                            F#m
My midwives looking at each other 
B7                                   E
"Wow, this boy is born with singing heart" 


E|-0-2-0-/5-4-2h4p2-|
B|-0-0-0------------|
G|------------------|
D|------------------|
A|------------------|
E|------------------| 
                               E

All doors for him will now fly open 
                      C#m
For everybody loves a nut 
                                 F#m
It's true once they threw me in trenches 
B7                           E
Front line amigos sure love that 

E|-0-4-5-6-7-|

Chorus:
   E                       B
Malandro, Malandro, Malandrino 
     A                        E
Truffaldo, Truffaldo, Truffaldino 
   E                       B
Malandro, Malandro, Malandrino 
A      B                E
I was born with singing heart 


E|-0-2-0-/5-4-2h4p2-0|
B|-0-0-0------------|
G|------------------|
D|------------------|
A|------------------|
E|------------------| 

                                            E
Those midwives were like politicians 
                            C#m
To bickering they were so proud 
                             F#m
One said "life is beautiful gift, boy" 
B7                          E
Other one said "government loan" 

 
E|-0-2-0-/5-4-2h4p2-0|
B|-0-0-0------------|
G|------------------|
D|------------------|
A|------------------| 
E|------------------|
                                 E
I still don't know which one is right girl 
                             C#m
And you know I don't really care 
                          F#m
I got to keep my heart a-singing 
B7                          E
And for that anything I'll dare 
             E         B7            E
Oh, for that anything, anything I'll dare 




Guitar Chords Used

 

People Who Play This Song Also Play

Not Found...