akordai.org - get guitar chords, learn to play!
Sign In
lt   en

Partizanai  
Diktatūra

Chords / Tabs

  • Ave. Rating
  • 2 vote(s)
  • Sent By
  • AkordaiBot
  • 2006-09-15 11:15:33
  • Collection
  • Add
From: LaBi :)) - zinukas(a)one.lt
To: gerb(a)bamba.lt
WWW.AKRODAI.COM

DIKTATURA - PARTIZANAI


Em   022000                     
A5   557775     
B#   335553
C    332010
G    355433

Pereimas: trach\'ais 5zemas 3z,2z,5 aukstas, 3a  isgirde sugrosite tikrai


INTRO:
e------------------------------------------------------------------------
B---5----5-----------5----5------------7-----7-----------7----7----------
G-----5----5----5------5----5----5-------7-----7----7------7----7---7----
D-------5----5-----------5----5------------7-----7-----------7----7------
A-3----------------3-----------------5-----------------5-----------------
E------------------------------------------------------------------------

E---7-----7-----------7----7---------------------------------------------
B-----8-----8---8-------8----8---8---------------------------------------
G-------9-----9-----------9----9-----------------------------------------
D------------------------------------------------------------------------
A-7----------------7-----------------------------------------------------
E------------------------------------------------------------------------

e-------------------------------------------------------------------
B---5-----5-------------------7-----7-------------------------------
G-----5-----5-------------------7-----7-----------------------------
D-------5-----5-------------------7-----7---------------------------
A-3------------------------5----------------------------------------
E------------------------------------------------------------------- 

E---7-----7-----------7----7----------------------------------------
B-----8-----8---8-------8----8---8----------------------------------
G-------9-----9-----------9----9------------------------------------
D-------------------------------------------------------------------
A-7----------------7------------------------------------------------
E-------------------------------------------------------------------

e-------------------------------------------------------------------
B---5-----5-------------------7-----7-------------------------------
G-----5-----5-------------------7-----7-----------------------------
D-------5-----5-------------------7-----7---------------------------
A-3------------------------5----------------------------------------
E------------------------------------------------------------------- 

E---7-----7-----------7----7----------------------------------------
B-----8-----8---8-------8----8---8----------------------------------
G-------9-----9-----------9----9------------------------------------
D-------------------------------------------------------------------
A-7----------------7------------------------------------------------
E-------------------------------------------------------------------


e-------------------7-0-5----------------------------5-0-3----------
B----8------8---8----------8-7-----------7----7---7--------7-5------
G-9------99---9-----------------------7----77---7-------------------
D------------------------------------------------------------------- X2
A-------------------------------------------------------------------
E-------------------------------------------------------------------


Em              Em
Ar sninga, lyja naktyje
    C             G   A5 B#
Ir salciai kausto mus
Ir slauz ginklo musyje 
Kiekvienas cia mus

Mums plieno salmai galva dengia
Sirdis pilna garbes
Eina anapiln apsisprende
Ranka nesudrebes

Pr:
Em             C
Mes partizanai visi vyrai
     G           A5     
Mes viepaciai misku
Ar dainos skamba svinas byra         X2
Visuomet mums ramu

Pereimas

Tevynes meile aiskiai spindi
Akyse ir veiduos
Ir zemes jie dievulio spirndzio
Niekuomet neatiduos

Maza tevyne bet galinga
Is praeities laiku
Ir tokiu vyru jai nestinga
Praeis,keliaus dides

Pr:X2

Pereimas:

Em Em C G A5 B#

Pr.: X4

pereimas

del zodziu negarantuoju ness nelabai koki irasa turiu.
bet gal bus gerai..tikiuosi viska supratot:))))


Guitar Chords Used

 

People Who Play This Song Also Play

Not Found...